Fastball - The Way Chords & Tabs

 

The Way Chords & Tabs

Fastball Chords & Tabs

Version: 3 Type: Tab 0 ratings
1 star 2 stars 3 stars 4 stars 5 stars
comments

The Way Tab

   
Title:          The Way
Artist:         Fastball
Album:          All The Pain Money Can Buy
Transcribed by: wEiRdDeHi

Here's an easy song that's fun to play (the other TABs weren't as thorough as this one); 
chords are easy and it's in standard tuning.

CHORDS USED:

	F#m=	xxx222

	Bm=	xxx432

	C#=	xxx121

	F#=	xxx322

	E=	022100

	A=	x0220

	D=	xx(0)232

<==============================>

Verse 1
------
F#m
They made up their minds
                 Bm
And they started packing
     C#                                 F#m
They left before the sun came up that day
   F#                        Bm
An exit to eternal summer slacking
    F#m                       C#
But where were they going without ever
            F#m
Knowing the way?


Verse 2
------
F#m
They drank up the wine
		Bm
And they got to talking
     C#				        F#m
They now had more important things to say
       F#				      Bm
(And) When the car broke down they started walking
 F#m			  C#
Where were they going without even
            F#m
Knowing the way?      E


Chorus
-----

E                  A
Anyone can see the road that they walk on
    E
Is paved with gold
F#m
It's always summer
         C#
They'll never get cold
        D
They'll never get hungry
        A                  E
They'll never get old and grey
                  A                  E
You can see their shadows wandering off somewhere
      F#m
They won't make it home
           C#
But they really don't care
     D
They wanted the highway
        A               E       C#
They're happier there today


Verse 3
-------
F#m
Their children woke up
		   Bm
And they couldn't find them
	C#				 F#m
They'd left before the sun came up that day
      F#			        Bm
They just drove off and left it all behind 'em
      F#m		       C#
But where were they going without ever
	    F#m
Knowing the way?       E

Chorus
-----

E                  A
Anyone can see the road that they walk on
    E
Is paved with gold
F#m
It's always summer
         C#
They'll never get cold
        D
They'll never get hungry
        A                  E
They'll never get old and grey
                  A                  E
You can see their shadows wandering off somewhere
      F#m
They won't make it home
           C#
But they really don't care
     D
They wanted the highway
        A               E       C#
They're happier there today
[ Tab from: http://www.guitartabs.cc/tabs/f/fastball/the_way_tab_ver_3.html ]
1st solo
--------

F#m                                        Bm
(Em)                                       (Am)
e--------------------------------------------------------------------------------|
B--------------------------------------------------------------------------------|
G-------------------------------------------------------------------11-9-7-6-4-2-|
D-------------------------------------7-9-11-11-11-11-9-9-9-7-7-7-6-11-9-9-7-6-4-|
A----------------------2-2-2-2--4-7-9--------------------------------------------|
E-14\2-2-2-2--5-5-5-5------------------------------------------------------------|

F#m                 C#             F#m
(Em)                (B)            (Em)
e-------------------------------------------------------------------|
B--------------7h9--9t10--10-12--9-10p9-----------------------------|
G-------6-7-9---------------------------11--9-11p9------------------|
D-11\7---------------------------------------------11--9-11---------|
A-------------------------------------------------------------------|
E-------------------------------------------------------------------|

Chorus
------

E                  A
Anyone can see the road that they walk on
    E
Is paved with gold
F#m
It's always summer
         C#
They'll never get cold
        D
They'll never get hungry
        A                  E
They'll never get old and grey
                  A                  E
You can see their shadows wandering off somewhere
      F#m
They won't make it home
           C#
But they really don't care
     D
They wanted the highway
        A               E       C#
They're happier there today

2nd solo
--------
F#m                                         Bm
(Em)                                        (Am)
e------------------------------------------------9-10-9t10--10-9-------------|
B------------------------------------------10h12-----------------12----13b14-|
G-------------------------------------------------------------------11-------|
D----------------------------------7-9-11------------------------------------|
A-------------------2-2-2-2--4-7-9-------------------------------------------|
E-2-2-2-2--5-5-5-5-----------------------------------------------------------|

F#m            C#
(Em)           (B)
e--------------------------------------------------------------|
B-17-14-17p14--------------------------------------------------|
G--------------------------------------------------------------|
D--------------------------9-7-11-9--------------7-------------|
A--------------------------------------------------9-----------|
E--------------7-7-7-7-9--------------5--2---7h9------7p5--2---|

(Let ring.)
~~~~~~~~~~~~~~
Another great tab by wEiRdDeHi!!! (Actually only my 2nd lol)
Comments