Fastball - The Way Chords & Tabs

 

The Way Chords & Tabs

Fastball Chords & Tabs

Version: 2 Type: Tab 0 ratings
1 star 2 stars 3 stars 4 stars 5 stars
comments

The Way Tab

Author/Artist: Fastball
Title: The Way
Transcribed by: Radar
Email: sonar16@hotmail.com

These are the 2 solos

------------------|----------------------|------------------------|-----------
------------------|----------------------|------------------------|-----------
------------------|---------2--4--6--x--x|--6-6-6--4-4-4--2-2-2--1|-----------
------------------|---2--4---------------|-x----------------------|-----------
------------2--2-2|-4--------------------|------------------------|-----------
-14\2--5-5--------|----------------------|------------------------|-----------


-5b----5b----5b---2---------|----------------------2h4|-4v----5---5b----5-----
-5b----5b----5b--------4---2|---------2--3--5---------|-----------------------
----------------------------|-4b5rp2------------------|-----------------------
----------------------------|-------------------------|-----------------------
----------------------------|-------------------------|-----------------------
----------------------------|-------------------------|-----------------------

[ Tab from: http://www.guitartabs.cc/tabs/f/fastball/the_way_tab_ver_2.html ]
-5p4--2-------2p0---------|---|-----------------------------------------------
----------5--------2---2--|---|-----------------------------------------------
-------------------------2|-4b|-----------------------------------------------
--------------------------|---|-----------------------------------------------
--------------------------|---|-----------------------------------------------
--------------------------|---|-----------------------------------------------
-Then the one at the end...

--------------------|------------------------|----------------------|---------
--------------------|------------------------|---------14---15---14v|---------
--------------------|-----------2--4--6--x--x|--14h16---------------|---------
--------------------|-----2--4---------------|----------------------|---------
-------------2---2-2|--4---------------------|----------------------|---------
-2v----5--5---------|------------------------|----------------------|---------


----------------------------------------------------x-x-x-x|------------------
------------------------------17---------14---14----x-x-x-x|------------------
--16----------16-------16b--------16r----16---16----x-x-x-x|------------------
------14----------15--------------------------------x-x-x-x|------------------
-----------------------------------------------------------|------------------
-----------------------------------------------------------|------------------
                          
--------------------|-----------------------|---------------------------------
-2/4--2-------------|-----------------------|---------------------------------
-2/4--2-------------|-----------------------|---------------------------------
--------------------|------------2--4-------|---------------------------------
----------4--2------|-------2h4--------2--0-|---------------------------------
------------------5b|-2---------------------|-2-------------------------------
Comments