Fastball - She Comes Round Chords & Tabs

 

She Comes Round Chords & Tabs

Fastball Chords & Tabs

Version: 1 Type: Tab 0 ratings
1 star 2 stars 3 stars 4 stars 5 stars
comments

She Comes Round Tab

INTRO/RIFF
e------------------------------------------------------------------------
B------------------------------------------------------------------------
G--------------------------7-7-7-7-------------------------7-7-7-7-7/9-9-
D--9-9-9-7-9-9-9-7-9-9-9-7-7-7-7-7-9-9-9-7-9-9-9-7-9-9-9-7-7-7-7-7-7/9-9-
A--9-9-9-7-9-9-9-7-9-9-9-7-5-5-5-5-9-9-9-7-9-9-9-7-9-9-9-7-5-5-5-5-5/7-7-
E--7-7-7-5-7-7-7-5-7-7-7-5---------7-7-7-5-7-7-7-5-7-7-7-5---------------

|-------------
|-------------
|-7-9-9-9-7---
|-7-9-9-9-7-7-
|-5-7-7-7-5-7-
|-----------5-
REPEAT FOR VERSE(CONTINUE THE LAST 5/7/7 POWER CHORD FOR 8 COUNTS IN VERSE)

CHORUS

|------------------------------------------------------------------
|------------------------------------------------------------------
|--6-6-6-6-6-6-6-6-6-6-6-6-6-6-6-6-9-9-9-9-9-9-9-9-9-9-9-9-9-9-9-9-
|--6-6-6-6-6-6-6-6-6-6-6-6-6-6-6-6-9-9-9-9-9-9-9-9-9-9-9-9-9-9-9-9-
|--4-4-4-4-4-4-4-4-4-4-4-4-4-4-4-4-7-7-7-7-7-7-7-7-7-7-7-7-7-7-7-7-
|------------------------------------------------------------------
[ Tab from: http://www.guitartabs.cc/tabs/f/fastball/she_comes_round_tab.html ]
POST CHORUS
|------------------------------------------------------
|------------------------------------------------------
|------------------------------------------------------
|--9-9-9-7-9-9-9-7-9-7--2----9-9-9-7-9-9-9-7-9-7--2----
|--9-9-9-7-9-9-9-7-9-7--2----9-9-9-7-9-9-9-7-9-7--2----
|--7-7-7-5-7-7-7-5-7-5--0----7-7-7-5-7-7-7-5-7-5--0----

VERSE 2

CHORUS

POST CHORUS

BRIDGE
|--------------------------------------------------------------------------
|--------------------------------------------------------------------------
|------------------7-7-7-7-7-7-7-7-9-9-9-9-9-9-9-9-11-11-11-11-11-11-11-11-
|--5-5-5-5-5-5-5-5-7-7-7-7-7-7-7-7-9-9-9-9-9-9-9-9-11-11-11-11-11-11-11-11-
|--5-5-5-5-5-5-5-5-5-5-5-5-5-5-5-5-7-7-7-7-7-7-7-7-9--9--9--9--9--9--9--9--
|--3-3-3-3-3-3-3-3---------------------------------------------------------

|-------------------------------------------------------------------
|-------------------------------------------------------------------
|-12-12-12-12-12-12-12-12-7-7-7-7-7-7-7-7---------------------------
|-12-12-12-12-12-12-12-12-7-7-7-7-7-7-7-7-4--2-4--2-4--2-4--2-4-2-4-
|-10-10-10-10-10-10-10-10-5-5-5-5-5-5-5-5-4--2-4--2-4--2-4--2-4-2-4-
|-----------------------------------------2--0-2--0-2--0-2--0-2-0-2-

CHORUS

POST CHORUS
Comments