Fastball - Fire Escape Chords & Tabs

 

Fire Escape Chords & Tabs

Fastball Chords & Tabs

Version: 2 Type: Bass Tab 0 ratings
1 star 2 stars 3 stars 4 stars 5 stars
comments

Fire Escape Bass Tab

  BTAB: Fire Escape
Artist: Fastball
 Album: All The Pain Money Can Buy
Author: Rattman (jratt0@hotmail.com)

**Padrino's Bass Tab Exclusive!**

Intro:

G------------6-4-------------
D----------------6-4-2-------
A-----2-4-4~-----------4-2-4-
E-4-4------------------------


Verse:
[ Tab from: http://www.guitartabs.cc/tabs/f/fastball/fire_escape_btab_ver_2.html ]
G---------------------------------------------------------------------
D----------------------------2-3-4-4-4-4-1-1-1-1----------------------
A-4-4-4--4-4-4--4-4-4--4-4-4---------------------4-4-4--4-4-4--4-4-4--
E---------------------------------------------------------------------


Chorus:

G-----------------------------------------------
D-----------------------------------------------
A-----------6---------------1-1-2-2-3-4-4-4-4-4-
E-4-4-4-4-4---4-4-4-4-4-2-2---------------------


"...be myself..."

G------------------------------------
D-4--4-------------------------------
A---4--4/6-6-6-6-6-6-4-4-4-4-4-4-4-4-
E------------------------------------


Taken from Padrino's Bass Tab Archive: http://members.xoom.com/jszalma/


Comments