Farside - Page Chords & Tabs

 

Page Chords & Tabs

Farside Chords & Tabs

Version: 1 Type: Tab 0 ratings
1 star 2 stars 3 stars 4 stars 5 stars
comments

Page Tab

#----------------------------------PLEASE NOTE---------------------------------#
#This file is the author's own work and represents their interpretation of the #
#song. You may only use this file for private study, scholarship, or research. #
#------------------------------------------------------------------------------#

band     Farside
song     Page
from the album Rigged 
from Revelation Records   1994
tab by Winston Loh


Guitar 1 - Intro

e----------------------------------------------------------------
|--5-4-0-2-4-5-4--0-0---4-0-5-4---5-4-0-2-4-5-4--0-0---4-0-------
|---------------------2------------------------------2-----2-4---
|----------------------------------------------------------------
|----------------------------------------------------------------
E----------------------------------------------------------------

Guitar 2 - Verse

e----------------------------------------------------------------
|----------------------------------------------------------------
|---------4-4-4--6-6-6------------------4-4-4--6-6-6-------------
|---------4-4-4--6-6-6--7-7-7-----------4-4-4--6-6-6--7-7-7------
|--7-6-0--2-2-2--4-4-4--7-7-7----7-6-0--2-2-2--4-4-4--7-7-7------
E-----------------------5-5-5-------------------------5-5-5------

  Repeat for length of verse


Guitar 1 - Verse

 sometimes plays   e----------------------------------
                   |----------------------------------
                   |---x-x-9---x-x-9---x-x-9---x-x-9--
                   |---x-x-9---x-x-9---x-x-9---x-x-9--
                   |---x-x-7---x-x-7---x-x-7---x-x-7--
                   E----------------------------------


sometimes plays intro
sometimes doubles Guitar 2  (I think)


Guitar 2 - I'll call this the Chorus

e----------------------------------------------------------------
|----------------------------------------------------------------
|-------------------------4-4-4--------------------4-4-4---------
|-------------------------4-4-4--------------------4-4-4---------
|--7-6-0--9----6----9-11--2-2-2----9----6----9-11--2-2-2---------
E----------------------------------------------------------------

       Heyyy-Ohhh

e----------------------------------------------------------------
|----------------------------------------------------------------
|------------------4-2-2-----------------------------------------
|------------------4-2-2-----------------------------------------
|--9----6----9-11--2-0-0---7---12p11h12p11h12--------------------
E----------------------------------------------------------------

Now back to the verse
[ Tab from: http://www.guitartabs.cc/tabs/f/farside/page_tab.html ]
e----------------------------------------------------------------
|----------------------------------------------------------------
|---------4-4-4--6-6-6------------------4-4-4--6-6-6-------------
|---------4-4-4--6-6-6--7-7-7-----------4-4-4--6-6-6--7-7-7------
|--7-6-0--2-2-2--4-4-4--7-7-7----7-6-0--2-2-2--4-4-4--7-7-7------
E-----------------------5-5-5-------------------------5-5-5------

  When I look at what we've done..

Repeat for length of the verse,

Then play the chorus again,


Then play this,

e----------------------------------------------------------------
|----------------------------------------------------------------
|---------6-6-6-6--8-9-9-----------------------------------------
|---------6-6-6-6--8-9-9-----------------------------------------
|--7-6-0--4-4-4-4--6-7-7--9-11---14r13b14r13b14---14r13b14r13b14-
E----------------------------------------------------------------

                                (I'm not positive about this)


e----------------------------------------------------------------
|----------------------------------------------------------------
|--6-6-6-6--8-9-9------------------------------------------------
|--6-6-6-6--8-9-9------------------------------------------------
|--4-4-4-4--6-7-7--9-11---14r13b14r13b14---14r13b14r13b14--------
E----------------------------------------------------------------

                          I see it different now..


Repeat this last line two more times,


Then play this,

e----------------------------------------------------------------
|----------------------------------------------------------------
|---------4-4-4--6-6-6--9-9-9-9-9----2-2-2--4-4-4--9-9-9-9-9-----
|---------4-4-4--6-6-6--9-9-9-9-9----2-2-2--4-4-4--9-9-9-9-9-----
|--7-6-0--2-2-2--4-4-4--7-7-7-7-7----2-2-2--4-4-4--7-7-7-7-7-----
E----------------------------------------------------------------
                         

e----------------------------------------------------------------
|----------------------------------------------------------------
|--4-4-4--6-6-6--9-9-9-9-9----4-4-4--6-6-6--9-9-9-9-9------------
|--4-4-4--6-6-6--9-9-9-9-9----4-4-4--6-6-6--9-9-9-9-9------------
|--2-2-2--4-4-4--7-7-7-7-7----2-2-2--4-4-4--7-7-7-7-7------------
E----------------------------------------------------------------


Then play the verse again,

   With a quick goodbye...

Repeat the verse for a while,

Then play the chorus again - but not the phphph at the end,

Then play this,

e----------------------------------------------------------------
|----------------------------------------------------------------
|--4-4--6-6-------4-4--6-6-------4-4--6-6-------4-4--6-6---------
|--4-4--6-6--7----4-4--6-6--7----4-4--6-6--7----4-4--6-6--7------
|--2-2--4-4--7----2-2--4-4--7----2-2--4-4--7----2-2--4-4--7------
E------------5--------------5--------------5--------------5------


e----------------------------------------------------------------
|----------------------------------------------------------------
|--13-13-14---13-13-14---13-13-14-----4-4-4---6-6-6--------------
|---x--x--x----x--x--x----x--x--x-----4-4-4---6-6-6--------------
|--11-11-12---11-11-12---11-11-12-----2-2-2---4-4-4--------------
E----------------------------------------------------------------

            So long my friend..


end
Comments