Farside - Keep My Soul Awake Chords & Tabs

 

Keep My Soul Awake Chords & Tabs

Farside Chords & Tabs

Version: 1 Type: Tab 0 ratings
1 star 2 stars 3 stars 4 stars 5 stars
comments

Keep My Soul Awake Tab

#----------------------------------PLEASE NOTE---------------------------------#
#This file is the author's own work and represents their interpretation of the #
#song. You may only use this file for private study, scholarship, or research. #
#------------------------------------------------------------------------------#

SONG:       Keep My Soul Awake
ARTIST:     FARSIDE
ALBUM:      SCRAP
TRACK:      #3
TABBED BY:  Rich Cooper.
             (k943707@king.ac.uk)        < until june 1997
          or (RichardC@mai.sprint.com)   < until june 1996

Anyone who want's to talk to me about Farside and any other
similar bands or any hardcore bands, or mistakes in my tab, or
any farside tab requests, or absolutely anything, Just mail
and i'll make sure i reply!

I'm pretty sure this tab is right but the timing is slightly
out at some points coz it is kinda hard to show the exact
strumming pattern.
Some of the chords are played palm muted but it's easy to
tell if you listen to the song.

If anyone has any other Farside tabs at all the please
send em to me.  I'll make it worth your while.

Peace out,
Rich.

________________________THE TAB______________________

INTRO
e-|------------------------------------------|
B-|------------------------------------------|
G-|--7--7--7--7-7-7-7-7--7--7--7--7-7-7-7-7--|
D-|--7--7--7--7-7-7-7-7--7--7--7--7-7-7-7-7--|
A-|--5--5--5--5-5-5-5-5--5--5--5--5-5-5-5-5--|
E-|------------------------------------------|
[ Tab from: http://www.guitartabs.cc/tabs/f/farside/keep_my_soul_awake_tab.html ]
VERSE (PART1)              (PART2)
e-|------------------|------------------------------------------|
B-|------------------|------------------------------------------|
G-|--------5---------|-7--7--7--7-7-7-7-7--7--7--7--7-7-7-7-7---|
D-|--7--7--5---5-5-5-|-7--7--7--7-7-7-7-7--7--7--7--7-7-7-7-7---|
A-|--7--7--3---5-5-5-|-5--5--5--5-5-5-5-5--5--5--5--5-5-5-5-5---|
E-|--5--5------3-3-3-|------------------------------------------|


CHORUS
e-|-----------------------------------------------|
B-|-----------------------------------------------|
G-|--9--9-9-----------6-6/7-7-7-7--6-6/7-7-7-7----|
D-|--9--9-95-5-5-5-5--6-6/7-7-7-7--6-6/7-7-7-7----|
A-|--7--7-75-5-5-5-5--4-4/5-5-5-5--4-4/5-5-5-5----|
E-|--------3-3-3-3-3------------------------------|

AFTER CHORUS
e-|-----------------------------------------------|
B-|-----------------------------------------------|
G-|--9--9-9---------------------------------------|
D-|--9--9-95--------------------------------------|
A-|--7--7-75--------------------------------------|
E-|--------3--------------------------------------|
           ^let ring and pick slide until verse begins again



Song Structure
~~~~~~~~~~~~~~
INTRO
          Spirits fly high, but they die so easily
^VERSE1 ^VERSE2
 I cry when they do
^VERSE1
  Young energy, that flame inside seems so Free, Yeah,
^VERSE2
 can i rely on you?
^VERSE1
 I feel the years pass through me,
^CHORUS
 Keep my soul awake,
^CHORUS
 Don't wanna lose that feeling,
^CHORUS
 Keep my soul awake.
^CHORUS
 Keep my soul awake.
^CHORUS
AFTER CHORUS
          Don't let it slide, we all grow up so quickly.
^VERSE1  ^VERSE2
 Hang on to what's inside
^VERSE1
 So young at heart, just take your time,
^VERSE2
 There's no hurry,
 don't want to lose my mind.
^VERSE1
 I feel the years pass through me,
^CHORUS
 Keep my soul awake,
^CHORUS
 Don't wanna lose that feeling,
^CHORUS
 Keep my soul awake.
^CHORUS
 Keep my soul awake.
^CHORUS
______________________THE END________________________
Comments