Farse - When The Laughter Stops Chords & Tabs

 

When The Laughter Stops Chords & Tabs

Farse Chords & Tabs

Version: 1 Type: Tab 0 ratings
1 star 2 stars 3 stars 4 stars 5 stars
comments

When The Laughter Stops Tab

E------------------------------------------------------------------------|
b------------------------------------------------------------------------|
g------------------------------------------------------------------------|
d-----------------------------------------------------------2-2-2-2------|
a----------------2-------------1-------------2---------------------------|
e--0--0--2--3------0--0--2--3----0--0--2--3------0--0--2--3--------------|
                 Played twice
[ Tab from: http://www.guitartabs.cc/tabs/f/farse/when_the_laughter_stops_tab.html ]
E------------------------------------------------------------------------------|
b-------------------------------------------------------------4-4-4-4----------|
g--------------4---------------3--------------4---------------4-4-4-4----------|
d--2--2--4--5--4--2--2--4--5---3--2--2--4--5--4--2--2--4--5---2-2-2-2----------|
a--2--2--4--5--2--2--2--4--5---1--2--2--4--5--2--2--2--4--5--------------------|
e--0--0--2--3-----0--0--2--3------0--0--2--3-----0--0--2--3--------------------|
              Play three times
               then on the fourth time add
E------------------------------------------------------------------------------|
b------------------------------------------------------------------------------|
g----5-----4-------------------------------------------------------------------|
d----5-----4-------------------------------------------------------------------|
a----3-----2-------------------------------------------------------------------|
e------------------------------------------------------------------------------|
        [cymbal x4]
E-----------------------------------------------------------------------|
b-----------------------------------------------------------------------|
g--------------4--4--3---------------------5--5--4----------------------|
d-2--2--4--5---4--4--3---5----2--2--4--5---5--5--4--5-------------------|
a-2--2--4--5---2--2--1---5----2--2--4--5---3--3--2--5-------------------|
e-0--0--2--3-------------3----0--0--2--3------------3-------------------|
              Play four times, then
E-------------------------------------------------------------------------------|
b-------------------------------------------------------------------------------|
g-------------------------------------------------------------------------------|
d--2----------------------------------------------------------------------------|
a--2--------let ring------------------------------------------------------------|
e--0----------------------------------------------------------------------------|



I went to see this band at the Axe and Cleaver. They were amasing see them if you can

Nik
Comments