Farin Urlaub Racing Team - Sumisu Chords & Tabs

 

Sumisu Chords & Tabs

Farin Urlaub Racing Team Chords & Tabs

Version: 1 Type: Tab 0 ratings
1 star 2 stars 3 stars 4 stars 5 stars
comments

Sumisu Tab

   
-------------------------------------------------------------------------------
			     SUMISU ? Farin Urlaub
-------------------------------------------------------------------------------

tabbed by patRick, Patrick.ich@aon.at, www.traitor.at.tf

Intro-riff: play it 8x
  e             e
e|---------------------------------------------------------------------------|
B|------------------------8--------------------------------------------------|
G|-----9-7h9-9------9-7h9----------------------------------------------------|
D|---9------------9----------------------------------------------------------|
A|-7------------7------------------------------------------------------------|
E|---------------------------------------------------------------------------|

Main part during farin sings: 4x
   e      e     G     h(b)
e|---------------------------------------------------------------------------|
B|---------------------------------------------------------------------------|
G|-------------4444----------------------------------------------------------|
D|-2222--2222--5555--9999----------------------------------------------------|
A|-2222--2222--5555--9999----------------------------------------------------|
E|-0000--0000?-3333--7777----------------------------------------------------|

Chorus 2x
  A         h(b)
e|---------------------------------------------------------------------------|
B|---------------------------------------------------------------------------|
G|---------------------------------------------------------------------------|
D|-77777777--99999999--------------------------------------------------------|
A|-77777777--99999999--------------------------------------------------------|
E|-55555555--77777777--------------------------------------------------------|

bridge riff: 2x
  e
e|---------------------------------------------------------------------------|
B|---------------------------------------------------------------------------|
G|--5----------5----------5--------------------------------------------------|
D|--------9----------9-----------9-------------------------------------------|
A|-7---7------7---7------7---7------7--9-8-----------------------------------|
E|---------------------------------------------------------------------------|
[ Tab from: http://www.guitartabs.cc/tabs/f/farin_urlaub_racing_team/sumisu_tab.html ]
Main part during farin sings: 4x
   e      e     G     h(b)
e|---------------------------------------------------------------------------|
B|---------------------------------------------------------------------------|
G|-------------4444----------------------------------------------------------|
D|-2222--2222--5555--9999----------------------------------------------------|
A|-2222--2222--5555--9999----------------------------------------------------|
E|-0000--0000?-3333--7777----------------------------------------------------|

Chorus 2x
  A         h(b)
e|---------------------------------------------------------------------------|
B|---------------------------------------------------------------------------|
G|---------------------------------------------------------------------------|
D|-77777777--99999999--------------------------------------------------------|
A|-77777777--99999999--------------------------------------------------------|
E|-55555555--77777777--------------------------------------------------------|

?outro?-riff until song ends
  e
e|---------------------------------------------------------------------------|
B|---------------------------------------------------------------------------|
G|--5----------5----------5--------------------------------------------------|
D|--------9----------9-----------9-------------------------------------------|
A|-7---7------7---7------7---7------7--9-8-7---------------------------------|
E|---------------------------------------------------------------------------|


Intro riff

e	e	G	h
unsre tage waren dunkel
e	e	G	h
unsre hemden waren schwarz
e	e	G	h
wir standen st?ndig auf dem schulhof in der ecke
e	e	G	h
und wir tauschten tief entt?uschte blicke aus

A
und immer, wenn wir traurig waren
h
(und traurig waren wir ziemlich oft)
A
gingen wir zu dir nach hause
b
und da h?rten wir die smiths
(bridge riff e)

e	e	G	h
unsere n?chte waren einsam
e	e	G	h
unsere herzen waren schwer
e	e	G	h
es gab niemanden, der uns verstehen konnte oder wollte
e	e	G	h
und so kamen wir uns n?her

A
und immer, wenn wir traurig waren
h
(und traurig waren wir ziemlich oft)
A
nahm ich dich in meine arme
h
und da h?rten wir die smiths

(bridge riff e)
manchmal auch the cure oder new order-
aber gr??tenteils die smiths
Comments