Farin Urlaub - Sonne Chords & Tabs

 

Farin Urlaub Chords & Tabs

Version: 1 Type: Bass Tab 0 ratings
1 star 2 stars 3 stars 4 stars 5 stars
comments

Sonne Bass Tab

Farin Urlaub - Sonne
pickshit@web.de

Verse
G--------------------------|
D-8...-6...----------------|
A----------6...-4-9...-8-4-|
E--------------------------|

Chorus
G---------------------------------------------------------------------|
D-----131-------131-----34643---34643---12421---12421---56865---56865-|
A-11-4---4--11-4---4--44------44------22------22------66------66------|
E---------------------------------------------------------------------|
[ Tab from: http://www.guitartabs.cc/tabs/f/farin_urlaub/sonne_btab.html ]
G--------------------------------------------------------|
D-----131-------131-----34643---34643---12421---12421----|
A-11-4---4--11-4---4--44------44------22------22---------|
E-----------------------------------------------------2~-|

Bridge
G---------------------|
D---------------------|
A-11-11-11-1-1-11-----|..
E---------------------|

G--------------------|
D-8...-6...----------|
A----------8...-9...-|
E--------------------|   x3

G---------------------|
D---------------------|
A---------------------|
E-6...-4...-1...-2----|..

G------------------------|
D------------------------|
A---------------6~-6~-6~-|
E-6...-4...-1...---------|
Comments