Far - In The Isle Yelling Chords & Tabs

 

In The Isle Yelling Chords & Tabs

Far Chords & Tabs

Version: 1 Type: Tab 0 ratings
1 star 2 stars 3 stars 4 stars 5 stars
comments

In The Isle Yelling Tab

   
-----------------------------------------------------------------------------
                       IN THE ISLE, YELLING - Far
-----------------------------------------------------------------------------

Tabbed by an17nin17
Email - c.norman83@ntlworld.com

Standard Tuning - E, A, D, G, B, E

Intro

|-------------|
|-------------|
|-------------|
|-------------|
|-------------|
|-0-6-6-0-6-0-|
  Play x 4

Verse

|---------------------------------|
|---------------------------------|
|---------------------------------|
|-8-8-8-7-7-7-5-5-5-4-4-4-3-3-3-2-|
|-8-8-8-7-7-7-5-5-5-4-4-4-3-3-3-2-|
|-6-6-6-5-5-5-3-3-3-2-2-2-1-1-1-0-|
  PM..............................
  Play x 8

Chorus

|----------------------------------------------------------------|
|----------------------------------------------------------------|
|----------------------------------------------------------------|
|----------------------------------------------------------------|
|----------------------------------------------------------------|
|-0-0-6-6-0-6-0-<6>-0-6-6-0-6-0-<6>-0-6-6-0-6-0-<6>-0-6-6-0-6-5^-|
  Play x 2

|---------------------------------|
|---------------------------------|
|---------------------------------|
|-8-8-8-7-7-7-5-5-5-4-4-4-3-3-3-2-|
|-8-8-8-7-7-7-5-5-5-4-4-4-3-3-3-2-|
|-6-6-6-5-5-5-3-3-3-2-2-2-1-1-1-0-|
  PM..............................
  Play x 8
[ Tab from: http://www.guitartabs.cc/tabs/f/far/in_the_isle_yelling_tab.html ]
|----------------------------------------------------------------|
|----------------------------------------------------------------|
|----------------------------------------------------------------|
|----------------------------------------------------------------|
|----------------------------------------------------------------|
|-0-0-6-6-0-6-0-<6>-0-6-6-0-6-0-<6>-0-6-6-0-6-0-<6>-0-6-6-0-6-5^-|
  Play x 2

Middle 8

|-------------0--0-0-0----------|-----------------------------|
|-------------0--0-0-0----------|-----------------------------|
|-------------0--0-0-0----------|-----------------------------|
|-2--2--2-2-2-8--8-8-8-6--6-6-6-|-8--8-7--7-5--5-4--4-3-3-3-2-|
|-2--2--2-2-2-8--8-8-8-6--6-6-6-|-8--8-7--7-5--5-4--4-3-3-3-2-|
|-0--0--0-0-0-6--6-6-6-4--4-4-4-|-6--6-5--5-3--3-2--2-1-1-1-0-|
  Play x 4                      | Play x 4

|---------------------------------|--------------|
|---------------------------------|--------------|
|---------------------------------|--------------|
|-8-8-8-7-7-7-5-5-5-4-4-4-3-3-3-2-|--------------|
|-8-8-8-7-7-7-5-5-5-4-4-4-3-3-3-2-|--------------|
|-6-6-6-5-5-5-3-3-3-2-2-2-1-1-1-0-|-0-6-6-0-6-5^-|
  PM............................................ |
  Play x 8                        |

Outro

|----------------------|-------------0--0-0-0----------|
|----------------------|-------------0--0-0-0----------|
|-----------3--3-3-----|-------------0--0-0-0----------|
|---------2------------|-2--2--2-2-2-8--8-8-8-6--6-6-6-|
|-------2--------------|-2--2--2-2-2-8--8-8-8-6--6-6-6-|
|-0---0------------4-4-|-0--0--0-0-0-6--6-6-6-4--4-4-4-|
  Play x 8             | Play x 4

                                                                  1|  2|
|-------------------------------------------------------------|----|---|
|-------------------------------------------------------------|----|---|
|-------------------------------------------------------------|----|---|
|-------------------------------------------------------------|----|---|
|-------------------------------------------------------------|----|---|
|-0-0-6-6-0-6-0-<6>-0-6-6-0-6-0-<6>-0-6-6-0-6-0-<6>-0-6-6-0-6-|-5^-|-0-|

And That's It.

If you have any comments or want any tabs contact me.
Comments