Far - Bury White Chords & Tabs

 

Bury White Chords & Tabs

Far Chords & Tabs

Version: 1 Type: Tab 0 ratings
1 star 2 stars 3 stars 4 stars 5 stars
comments

Bury White Tab

=========Far---Bury White=========

BAND:FAR
ALBUM:WATER & SOLUTIONS

this is a pretty easy song 2 play im pretty much 100% sure this is right cause Shaun 
playz the riff in the same sort of patern.ok i'll shut up now here it is....
Drop D tuning

LISTEN 2 THE CD FOR STRUMMING PATTERN

VERSE RIFF:
E------------------------|
B--66-666-6666-----------|
G--55-555-5555-----------|
D--33-333-3333-----------|
A--44-444-4444-----------|
D--00-000-0000-----------|
[ Tab from: http://www.guitartabs.cc/tabs/f/far/bury_white_tab.html ]
PRE CHORUS:
E------------------------|
B------------------------|
G------------------------|
D--400000040000004000000-|
A--400000040000004000000-|
D--400000040000004000000-|

CHORUS(ITS ALRIGHT......)
E------------------------------|
B------------------------------|
G-1111111111111111-------------|
D-XXXXXXXXXXXXXXX44440~~-------|
A-99999999999999944440~~-------|
D----------------44440~~-------|

INTERLUDE BIT
E------------------------------|
B------------------------------|
G------------------------------|
D--4000040000400004000040005/77|
A--4000040000400004000040005/77|
D--4000040000400004000040005/77|
Comments