Fantastapotamus - The News Chords & Tabs

 

The News Chords & Tabs

Fantastapotamus Chords & Tabs

Version: 1 Type: Tab 1 rating
1 star 2 stars 3 stars 4 stars 5 stars
comments

The News Tab

   
Fantastapotamus
The News

Notation:
h = hammeron               (---5h7---)
p = pulloff               (---14p12---)
b = bend                   (---5b7---)
r = release bend          (---19r17---)
                     
		               p.b.
p.b. = pre bend           (---16r14---)
() = ghost note  	         (---(8)---)
 = harmonic   	         (------)
 / = slide up   	         (---5/7---)
 \ = slide down 	         (---9\7---)
 x = percussive strike      (---x---)
 

G1: Acoustic [E A D G b E]
G2: Electric [E A D G b E]


BPM: Animato 116

Intro G1
e|----------------------------------------------|----------------------------------------------------|
B|--7h8-8-8--x--x-x-x--7h8-8-8--10--8--7--(8)---|--7-7-7--x--x-x-x--7-7-7--7-7-7--5-7----------------|
G|--7---7-7--x--x-x-x--7---7-7---7--7--7---7----|--7-7-7--x--x-x-x--7-7-7--7-7-7--5-7----------------|
D|--7h9-9-9--x--x-x-x--7h9-9-9------------------|--7-7-7--x--x-x-x--7-7-7--7-7-7--5-7----------------|
A|--7---7-7--x--x-x-x--7---7-7------------------|--5-5-5--x--x-x-x--5-5-5--5-5-5--3-5----------------|
E|----------------------------------------------|----------------------------------------------------|

Intro G2
e|----------------------------------------------|----------------------------------------------------|
B|----------------------------------------------|----------------------------------------------------|
G|----------------------------------------------|----------------------------------------------------|
D|----------------------------------------------|----------------------------------------------------|
A|----------------------------------------------|----------------------------------------------------|
E|----------------------------------------------|----------------------------------------------------|

     G1
e|----------------------------------------------|-------------------------------------|
B|--7h8-8-8--x--x-x-x--7h8-8-8--10--8--7--(8)---|--12--12-12-12-12-12---7--7-7-7-7-7--|
G|--7---7-7--x--x-x-x--7---7-7---7--7--7---7----|--12--12-12-12-12-12---7--7-7-7-7-7--|
D|--7h9-9-9--x--x-x-x--7h9-9-9------------------|--12--12-12-12-12-12---7--7-7-7-7-7--|
A|--7---7-7--x--x-x-x--7---7-7------------------|--10--10-10-10-10-10---5--5-5-5-5-5--|
E|----------------------------------------------|-------------------------------------|
    enter percussion
     G2
e|----------------------------------------------|-------------------------------------|
B|----------------------------------------------|-------------------------------------|
G|----------------------------------------------|-------------------------------------|
D|----------------------------------------------|-/12------------------/7-------------|
A|----------------------------------------------|-/10------------------/5-------------|
E|----------------------------------------------|-------------------------------------|
    enter percussion




Verse G1 and G2
e|----------------------------------------------|----------------------------------------------------|
B|--7h8-8-8--x--x-x-x--7h8-8-8--10--8--7--(8)---|--7-7-7--x--x-x-x--7-7-7--7-7-7--5-7----------------|
G|--7---7-7--x--x-x-x--7---7-7---7--7--7---7----|--7-7-7--x--x-x-x--7-7-7--7-7-7--5-7----------------|
D|--7h9-9-9--x--x-x-x--7h9-9-9------------------|--7-7-7--x--x-x-x--7-7-7--7-7-7--5-7----------------|
A|--7---7-7--x--x-x-x--7---7-7------------------|--5-5-5--x--x-x-x--5-5-5--5-5-5--3-5----------------|
E|----------------------------------------------|----------------------------------------------------|

e|----------------------------------------------|-------------------------------------|
B|--7h8-8-8--x--x-x-x--7h8-8-8--10--8--7--(8)---|--12--12-12-12-12-12---7--7-7-7-7-7--|
G|--7---7-7--x--x-x-x--7---7-7---7--7--7---7----|--12--12-12-12-12-12---7--7-7-7-7-7--|
D|--7h9-9-9--x--x-x-x--7h9-9-9------------------|--12--12-12-12-12-12---7--7-7-7-7-7--|
A|--7---7-7--x--x-x-x--7---7-7------------------|--10--10-10-10-10-10---5--5-5-5-5-5--|
E|----------------------------------------------|-------------------------------------|
										  x3




Chorus G1
e|-------------------------------|------------------|------------------|-----|
B|---5-5--x-x-x-x--7-7--x-x-x-x--|-7h8-8-7-7-7-7h8--|-7h8-8-10-10-8----|-7h8-|
G|---x-x--x-x-x-x--x-x--x-x-x-x--|-7---7-7-7-7-7----|-7---7--7--7-7----|-7---|
D|---5-5--x-x-x-x--7-7--x-x-x-x--|-7h9-9-9-9-9-7h9--|-7h9-9--9--9-9----|-7h9-|
A|---3-3--x-x-x-x--5-5--x-x-x-x--|-7---7-7-7-7-7----|-7---7--7--7-7----|-7---|
E|-------------------------------|------------------|------------------|-----|
                             x5    1st & 3rd times    2nd & 4th times   5th time; let ring

Chorus G2
e|-------------------------------|------------------|------------------|-----|
B|--------x-x-x-x-------x-x-x-x--|-7h8-8-7-7-7-7h8--|-7h8-8-10-10-8----|-7h8-|
G|---5-5--x-x-x-x--7-7--x-x-x-x--|-7---7-7-7-7-7----|-7---7--7--7-7----|-7---|
D|---5-5--x-x-x-x--7-7--x-x-x-x--|-7h9-9-9-9-9-7h9--|-7h9-9--9--9-9----|-7h9-|
A|---3-3--x-x-x-x--5-5--x-x-x-x--|-7---7-7-7-7-7----|-7---7--7--7-7----|-7---|
E|-------------------------------|------------------|------------------|-----|
			     x5    1st & 3rd times    2nd & 4th times   5th time; let ring




Verse G1 and G2
e|----------------------------------------------|----------------------------------------------------|
B|--7h8-8-8--x--x-x-x--7h8-8-8--10--8--7--(8)---|--7-7-7--x--x-x-x--7-7-7--7-7-7--5-7----------------|
G|--7---7-7--x--x-x-x--7---7-7---7--7--7---7----|--7-7-7--x--x-x-x--7-7-7--7-7-7--5-7----------------|
D|--7h9-9-9--x--x-x-x--7h9-9-9------------------|--7-7-7--x--x-x-x--7-7-7--7-7-7--5-7----------------|
A|--7---7-7--x--x-x-x--7---7-7------------------|--5-5-5--x--x-x-x--5-5-5--5-5-5--3-5----------------|
E|----------------------------------------------|----------------------------------------------------|

e|----------------------------------------------|-------------------------------------|
B|--7h8-8-8--x--x-x-x--7h8-8-8--10--8--7--(8)---|--12--12-12-12-12-12---7--7-7-7-7-7--|
G|--7---7-7--x--x-x-x--7---7-7---7--7--7---7----|--12--12-12-12-12-12---7--7-7-7-7-7--|
D|--7h9-9-9--x--x-x-x--7h9-9-9------------------|--12--12-12-12-12-12---7--7-7-7-7-7--|
A|--7---7-7--x--x-x-x--7---7-7------------------|--10--10-10-10-10-10---5--5-5-5-5-5--|
E|----------------------------------------------|-------------------------------------|
										  



[ Tab from: http://www.guitartabs.cc/tabs/f/fantastapotamus/the_news_tab.html ]
Solo G1
e|----------------------------------------------|----------------------------------------------------|
B|--7h8-8-8--x--x-x-x--7h8-8-8--10--8--7--(8)---|--7-7-7--x--x-x-x--7-7-7--7-7-7--5-7----------------|
G|--7---7-7--x--x-x-x--7---7-7---7--7--7---7----|--7-7-7--x--x-x-x--7-7-7--7-7-7--5-7----------------|
D|--7h9-9-9--x--x-x-x--7h9-9-9------------------|--7-7-7--x--x-x-x--7-7-7--7-7-7--5-7----------------|
A|--7---7-7--x--x-x-x--7---7-7------------------|--5-5-5--x--x-x-x--5-5-5--5-5-5--3-5----------------|
E|----------------------------------------------|----------------------------------------------------|
     G1
e|----------------------------------------------|-------------------------------------|
B|--7h8-8-8--x--x-x-x--7h8-8-8--10--8--7--(8)---|--12--12-12-12-12-12---7--7-7-7-7-7--|
G|--7---7-7--x--x-x-x--7---7-7---7--7--7---7----|--12--12-12-12-12-12---7--7-7-7-7-7--|
D|--7h9-9-9--x--x-x-x--7h9-9-9------------------|--12--12-12-12-12-12---7--7-7-7-7-7--|
A|--7---7-7--x--x-x-x--7---7-7------------------|--10--10-10-10-10-10---5--5-5-5-5-5--|
E|----------------------------------------------|-------------------------------------|
										   x2
Solo G2                                           p.b.
e|--------------------------------------------------------------------------------|
B|---------------------------------------------15--------12-----------------------|
G|---------11/12\11---------11-12-12/14-12--------16r14-----14p12-------12h14r12--|
D|------9-----------12--/14---------------------------------------14p12-----------|
A|--/7----------------------------------------------------------------------------|
E|--------------------------------------------------------------------------------|

e|-----------------------------------------------19p17-17--|
B|--------------------------------------17-17h19-----------|
G|-----------------------------16-16h19--------------------|
D|-----------------------16h19-----------------------------|
A|--------------15h17/19-----------------------------------|
E|--12h14-15h17--------------------------------------------|

e|--19p15-17p15-------------19p15-17p15-------------17p14-15p14-------------------|
B|--------------19p15-17p15-------------19p15-17p15-------------17p14-14h15-(15)--|
G|--------------------------------------------------------------------------------|
D|--------------------------------------------------------------------------------|
A|--------------------------------------------------------------------------------|
E|--------------------------------------------------------------------------------|
      p.b.                    /rake\
e|------------------------------------------------12-----------14p12-----------------------------------------------|
B|--15---------15p12--------------12-----------12----15p12-----------15p12-----------------------------------------|
G|----16r14----------14p12------12-------14b16-------------14--------------14p12-------------------16r14p12----12--|
D|----------12-------------12h14-------------------------------------------------14p12-------12h14----------14-----|
A|-------------------------------------------------------------------------------------12h14-----------------------|
E|-----------------------------------------------------------------------------------------------------------------|
										  v hold bend
e|--------------------------------------------|-----------------------------------------------|
B|----------------------------------------12--|--8------10------8---10---8---10---8-----------|
G|--------------12h14p12-11---------12-14-----|--7b9----9b11----7b9-9b11-7b9-9b11-10b12-------|
D|--------14p12-------------12---14-----------|-----------------------------------------------|
A|----/14-------------------------------------|-----------------------------------------------|
E|--------------------------------------------|-----------------------------------------------|





Verse G1 and G2
e|----------------------------------------------|----------------------------------------------------|
B|--7h8-8-8--x--x-x-x--7h8-8-8--10--8--7--(8)---|--7-7-7--x--x-x-x--7-7-7--7-7-7--5-7----------------|
G|--7---7-7--x--x-x-x--7---7-7---7--7--7---7----|--7-7-7--x--x-x-x--7-7-7--7-7-7--5-7----------------|
D|--7h9-9-9--x--x-x-x--7h9-9-9------------------|--7-7-7--x--x-x-x--7-7-7--7-7-7--5-7----------------|
A|--7---7-7--x--x-x-x--7---7-7------------------|--5-5-5--x--x-x-x--5-5-5--5-5-5--3-5----------------|
E|----------------------------------------------|----------------------------------------------------|

e|----------------------------------------------|-------------------------------------|
B|--7h8-8-8--x--x-x-x--7h8-8-8--10--8--7--(8)---|--12--12-12-12-12-12---7--7-7-7-7-7--|
G|--7---7-7--x--x-x-x--7---7-7---7--7--7---7----|--12--12-12-12-12-12---7--7-7-7-7-7--|
D|--7h9-9-9--x--x-x-x--7h9-9-9------------------|--12--12-12-12-12-12---7--7-7-7-7-7--|
A|--7---7-7--x--x-x-x--7---7-7------------------|--10--10-10-10-10-10---5--5-5-5-5-5--|
E|----------------------------------------------|-------------------------------------|





Chorus G1
e|-------------------------------|------------------|------------------|-----|
B|---5-5--x-x-x-x--7-7--x-x-x-x--|-7h8-8-7-7-7-7h8--|-7h8-8-10-10-8----|-7h8-|
G|---x-x--x-x-x-x--x-x--x-x-x-x--|-7---7-7-7-7-7----|-7---7--7--7-7----|-7---|
D|---5-5--x-x-x-x--7-7--x-x-x-x--|-7h9-9-9-9-9-7h9--|-7h9-9--9--9-9----|-7h9-|
A|---3-3--x-x-x-x--5-5--x-x-x-x--|-7---7-7-7-7-7----|-7---7--7--7-7----|-7---|
E|-------------------------------|------------------|------------------|-----|
                             x5    1st & 3rd times    2nd & 4th times   5th time; let ring

Chorus G2
e|-------------------------------|------------------|------------------|-----|
B|--------x-x-x-x-------x-x-x-x--|-7h8-8-7-7-7-7h8--|-7h8-8-10-10-8----|-7h8-|
G|---5-5--x-x-x-x--7-7--x-x-x-x--|-7---7-7-7-7-7----|-7---7--7--7-7----|-7---|
D|---5-5--x-x-x-x--7-7--x-x-x-x--|-7h9-9-9-9-9-7h9--|-7h9-9--9--9-9----|-7h9-|
A|---3-3--x-x-x-x--5-5--x-x-x-x--|-7---7-7-7-7-7----|-7---7--7--7-7----|-7---|
E|-------------------------------|------------------|------------------|-----|
			     x5    1st & 3rd times    2nd & 4th times   5th time; let ring




BPM: Andantino 84 with gradual tempo acceleration

Interlude G1               v pick once
e|---------------------------------------------------------------|
B|--5-----5/-7-----7--7h8--7h8p7h8p7--5-----5/-7-----7--7--7h8---|
G|----5--------7------------------------5--------7---------------|
D|------5--------7------------------------5--------7-------------|
A|--3-----3/-5-----5--7----7----------3-----3/-5-----5--5--7-----|
E|---------------------------------------------------------------|
  Fingerpicked

Interlude G2 Tacet
e|---------------------------------------------------------------|
B|---------------------------------------------------------------|
G|---------------------------------------------------------------|
D|---------------------------------------------------------------|
A|---------------------------------------------------------------|
E|---------------------------------------------------------------|





BPM: Animato 116

Outro G1
e|-------------------------------------------------------------------|
B|--5-----5/-7-----7--7h8--7h8-8h10----5-----5/-7-----7--7h8-8-8p7---|
G|----5--------7------7----7---7---------5--------7------------------|
D|------5--------7-------------------------5--------7----------------|
A|--3-----3/-5-----5--7----7---7-------3-----3/-5-----5--7---7-7-----|
E|-------------------------------------------------------------------|
  Fingerpicked						x4 with gradual build

Outro G2 
e|--------------------------------------------------------------|
B|--------------------------------------------------|
G|--------------------------------------------------------|
D|--------------------------------------------------------------|
A|--------------------------------------------------------------|
E|--------------------------------------------------------------|
                                                        x4
    G1
e|-------------------------------|------------------|------------------|-----------|
B|---5-5--x-x-x-x--7-7--x-x-x-x--|-7h8-8-7-7-7-7h8--|-7h8-8-10-10-8----|-7h8-8-8-8-|
G|---x-x--x-x-x-x--x-x--x-x-x-x--|-7---7-7-7-7-7----|-7---7--7--7-7----|-7---7-7-7-|
D|---5-5--x-x-x-x--7-7--x-x-x-x--|-7h9-9-9-9-9-7h9--|-7h9-9--9--9-9----|-7h9-9-9-9-|
A|---3-3--x-x-x-x--5-5--x-x-x-x--|-7---7-7-7-7-7----|-7---7--7--7-7----|-7---7-7-7-|
E|-------------------------------|------------------|------------------|-----------|
                             x5    1st & 3rd times    2nd & 4th times   5th time
    G2
e|-----------------------------------------|
B|---8-------------10--------------8-------|
G|---7b9-----------9b11------------10b12---|
D|-----------------------------------------|
A|-----------------------------------------|
E|-----------------------------------------|
                                       x5



Comments