Fanky Puppets - Temp On Chords & Tabs

 

Temp On Chords & Tabs

Fanky Puppets Chords & Tabs

Version: 2 Type: Tab 0 ratings
1 star 2 stars 3 stars 4 stars 5 stars
comments

Temp On Tab

#----------------------------------PLEASE NOTE--------------------------------#
#This file is the author's own work and represents their interpretation of the#
#song. You may only use this file for private study, scholarship, or research.#
#-----------------------------------------------------------------------------#
#-- File created with Instab - http://www.pconline.com/~smcarey/instab.html --#
#-----------------------------------------------------------------------------#

Author/Artist: FankY PuppetS
Title: Temp On
Album: Unknown
Transcribed by: Hoo
This Song... Is just to have fun, its really easy

ENJOY!!!!!!!!!!!

------------------------------------------------------------------------------|
------------------------------------------------------------------------------|
------------------------------------------------------------------------------|
------------------------------------------------------------------------------|
---------7-6-5-5-5/3-3-3/5----------------------------------------------------|
-0-5-6-7----------------------------------------------------------------------|
                                               Intro Bass 2x then Guitar 2

-------------------3-/-5------------------------------------------------------|
-------------------4-/-6------------------------------------------------------|
-------------------5-/-7------------------------------------------------------|
-------------------5-/-7------------------------------------------------------|
-------------------3-/-5------------------------------------------------------|
-------------------3-/-7------------------------------------------------------|
                                                                  Guitar 1

-7----------------------------------------------------------------------------|
-8----------------------------------------------------------------------------|
-9-x3-------------------------------------------------------------------------|
-9----------------------------------------------------------------------------|
-7----------------------------------------------------------------------------|
-7----------------------------------------------------------------------------|


-5----------------------------------------------------------------------------|
-6----------------------------------------------------------------------------|
-7-x3-------------------------------------------------------------------------|
-7----------------------------------------------------------------------------|
-5----------------------------------------------------------------------------|
-5----------------------------------------------------------------------------|


-5----------------------------------------------------------------------------|
-5----------------------------------------------------------------------------|
-6-x3-------------------------------------------------------------------------|
-7----------------------------------------------------------------------------|
-7----------------------------------------------------------------------------|
-5----------------------------------------------------------------------------|


-7----------------------------------------------------------------------------|
-7----------------------------------------------------------------------------|
-8-x3-------------------------------------------------------------------------|
-9----------------------------------------------------------------------------|
-9----------------------------------------------------------------------------|
-7----------------------------------------------------------------------------|
 ............................................................Chorus

-----7------------------------------------------------------------------------|
-----8------------------------------------------------------------------------|
-----9------------------------------------------------------------------------|
-----9------------------------------------------------------------------------|
-----7------------------------------------------------------------------------|
-7-7-7------------------------------------------------------------------------|
 pm
[ Tab from: http://www.guitartabs.cc/tabs/f/fanky_puppets/temp_on_tab_ver_2.html ]
-----5------------------------------------------------------------------------|
-----6------------------------------------------------------------------------|
-----7------------------------------------------------------------------------|
-----7------------------------------------------------------------------------|
-----5------------------------------------------------------------------------|
-5-5-5------------------------------------------------------------------------|
 pm

-----5------------------------------------------------------------------------|
-----5------------------------------------------------------------------------|
-----6------------------------------------------------------------------------|
-----7------------------------------------------------------------------------|
-----7------------------------------------------------------------------------|
-5-5-5------------------------------------------------------------------------|
 pm

-----7------------------------------------------------------------------------|
-----7------------------------------------------------------------------------|
-----8------------------------------------------------------------------------|
-----9------------------------------------------------------------------------|
-----9------------------------------------------------------------------------|
-7-7-7------------------------------------------------------------------------|
 pm   ............................................................Riffs

-777-555-333-----777-555-333-----/15-12-15-12-15-12-15-12-15-12-15-/----------|
-------------333-------------333----------------------------------------------|
------------------------------------------------------------------------------|
------------------------------------------------------------------------------|
------------------------------------------------------------------------------|
------------------------------------------------------------------------------|
 FAST COOL SOLO...!!!!!! This solo is dedicates to JOE, Come On Joe You Can!!

-14-17-16-14-17-16-14-17-16-14-17-16-14-17-16-14-17-16-14-17-16--17-17-17-17--|
------------------------------------------------------------------------------|
------------------------------------------------------------------------------|
------------------------------------------------------------------------------|
------------------------------------------------------------------------------|
------------------------------------------------------------------------------|
                                                                  full bend

-17-17-17-17------------------------------------------------------------------|
------------------------------------------------------------------------------|
------------------------------------------------------------------------------|
------------------------------------------------------------------------------|
------------------------------------------------------------------------------|
------------------------------------------------------------------------------|
  full bend/tremolo

------------------------------------------------------------------------------|
------------------------------------------------------------------------------|
------------------------------------------------------------------------------|
------------------------------------------------------------------------------|
------------------------------------------------------------------------------|
------------------------------------------------------------------------------|
 Chorus X2

------------------------------------------------------------------------------|
------------------------------------------------------------------------------|
------------------------------------------------------------------------------|
------------------------------------------------------------------------------|
------------------------------------------------------------------------------|
------------------------------------------------------------------------------|
 Riffs

-8-7-8-7-8-7-8-7-8-7-8-7-8-7-8-7-8-7-8-7-8-7-8--------------------------------|
------------------------------------------------------------------------------|
------------------------------------------------------------------------------|
------------------------------------------------------------------------------|
------------------------------------------------------------------------------|
------------------------------------------------------------------------------|
 p/h                p/h                 p/h                       Outro
Comments