Fanky Puppets - Memphis Chords & Tabs

 

Memphis Chords & Tabs

Fanky Puppets Chords & Tabs

Version: 2 Type: Tab 0 ratings
1 star 2 stars 3 stars 4 stars 5 stars
comments

Memphis Tab

#----------------------------------PLEASE NOTE--------------------------------#
#This file is the author's own work and represents their interpretation of the#
#song. You may only use this file for private study, scholarship, or research.#
#-----------------------------------------------------------------------------#
#-- File created with Instab - http://www.pconline.com/~smcarey/instab.html --#
#-----------------------------------------------------------------------------#

Author/Artist: FankY PuppetS
Title: ..........
Album: ........
-7------7-------7-------7-------/10------/9---------------9-------------------|
--9---9---9---9---9---9---9---9-------12----11----11--------------------------|
----9-------9-------9-------9------12----------11-----------------------------|
------------------------------------------------------------------------------|
------------------------------------------------------------------------------|
------------------------------------------------------------------------------|
 2X                   Clean(eco)                    en la segunda "pm"

-5------6-------5-------6-------5-------6-------5-------6---------------------|
--7---7---7---7---7---7---7---7---7---7---7---7---7---7-----------------------|
----7-------7-------7-------7-------7-------7-------7-------------------------|
------------------------------------------------------------------------------|
------------------------------------------------------------------------------|
------------------------------------------------------------------------------|
                                                        pm

-3-3-3-3-4-4-4-4-3-3-3-3-4-4-4-4-3--------------------------------------------|
-5-------5-------5-------5-------5--------------------------------------------|
-5-------5-------5-------5-------5--------------------------------------------|
------------------------------------------------------------------------------|
------------------------------------------------------------------------------|
------------------------------------------------------------------------------|
    pm      pm       pm                     Distorcion                   2X

-3-----------------------------------------------------------------7----------|
-5----------------------------------------------------------------------------|
-5-------------------------------------------------------------------9---9----|
-----------------------------------------------------------------------9------|
------------------------------------------------------------------------------|
------------------------------------------------------------------------------|
    let it ring....

-7------7-------7-------5-------5-------5-------5-------5-------5-------------|
------------------------------------------------------------------------------|
--9---9---9---9---9---9---7---7---7---7---5---5---5---5---7---7---7---7-------|
----9-------9-------9-------7-------7-------5-------5-------5-------7---------|
------------------------------------------------------------------------------|
------------------------------------------------------------------------------|
     Clean

-5-------5-------5-------5-------5-------5-------5----------------------------|
------------------------------------------------------------------------------|
---7---7---7---7---7---7---7---7---7---7---7---7------------------------------|
-----5-------7-------5-------7-------5-------7--------------------------------|
------------------------------------------------------------------------------|
------------------------------------------------------------------------------|
                                                   Guitar 1

----------5-5-5-5-6-6-6-6-5-5-5-5-6-6-6-6-5-5-5-5-6-6-6-6---------------------|
------------------------------------------------------------------------------|
------------------------------------------------------------------------------|
------------------------------------------------------------------------------|
------------------------------------------------------------------------------|
------------------------------------------------------------------------------|
             pm     pm                              Guitar 2

--5-6-5-6-5-6-5-6-5-6-5-6-5-6-5-6-5-6-5-6-5-6---5-----------------------------|
------------------------------------------------7-----------------------------|
------------------------------------------------7-----------------------------|
------------------------------------------------------------------------------|
------------------------------------------------------------------------------|
------------------------------------------------------------------------------|
                                                pm

------------------------------------------------------------------------------|
-1-1-1-1-1-1-1-1-2-1-1-1-1-1-1-1-1-2-1----------------------------------------|
-3-3-3-3-3-3-3-3-4-3-3-3-3-3-3-3-3-4-3----------------x8----------------------|
-3-3-3-3-3-3-3-3-4-3-3-3-3-3-3-3-3-4-3----------------------------------------|
------------------------------------------------------------------------------|
------------------------------------------------------------------------------|
                                                      Guitar 1
[ Tab from: http://www.guitartabs.cc/tabs/f/fanky_puppets/memphis_tab_ver_2.html ]
------------------------------------------------------------------------------|
------------------------------------------------------------------------------|
------------------------------------------------------------------------------|
-8-8-8-8-8-8------------------------------------------------------------------|
-9-9-9-9-9-10----------------------------------------4x-----------------------|
------------------------------------------------------------------------------|
                                                      Guitar 2

------------------------------------------------------------------------------|
------------------------------------------------------------------------------|
------------------------------------------------------------------------------|
-6-6-6-6-6-6------------------------------------------------------------------|
-7-7-7-7-7-8-----------------------------------------4x-----------------------|
------------------------------------------------------------------------------|
           (cuarta pm)                                Guitar 2

------------------------------------------------------------------------------|
-13-13-13-13-13-------13-13-13-13-13-------13-13-13-13-13---------------------|
----------------15-13----------------15-13----------------15-13---------------|
------------------------------------------------------------------------------|
------------------------------------------------------------------------------|
------------------------------------------------------------------------------|
                                                      Solo

------------------------------------------------------------------------------|
-13-13-13-13------------------------------------------------------------------|
-------------15-13--15b-15b-15b-15b-------------------15----------------------|
------------------------------------13-15-15b---15-13----13-------------------|
------------------------------------------------------------------------------|
------------------------------------------------------------------------------|
                        full bend          full          pm

------------------------------------------------------------------------------|
------------------------------------------------------------------------------|
------------------------------------------------------------------------------|
------------------------------------------------------------------------------|
-0h1h3-0h3h5-0h5h7-0h7h9-0h10h12-0h12h15-15/21b-21b-21b-21b-21b---------------|
------------------------------------------------------------------------------|
                                                     full

-1-1-1-1-1-1-1-1-2-1-1-1-1-1-1-1-1-2-1----------------------------------------|
-3-3-3-3-3-3-3-3-4-3-3-3-3-3-3-3-3-4-3----------------------------------------|
-3-3-3-3-3-3-3-3-4-3-3-3-3-3-3-3-3-4-3-----------------------4x---------------|
------------------------------------------------------------------------------|
------------------------------------------------------------------------------|
------------------------------------------------------------------------------|
                                                         2 Guitars

-7-----8-7--------------------------------------------------------------------|
---9-------9------------------------------------------------------------------|
-----9-------------------------------------------------3x---------------------|
------------------------------------------------------------------------------|
------------------------------------------------------------------------------|
------------------------------------------------------------------------------|
                                 distorcion

-5-----6-5--------------------------------------------------------------------|
---7-------7------------------------------------------------------------------|
-----7-------------------------------------------------3x---------------------|
------------------------------------------------------------------------------|
------------------------------------------------------------------------------|
------------------------------------------------------------------------------|
                                 distorcion

-3-----4-3--------------------------------------------------------------------|
---5-------5------------------------------------------------------------------|
-----5-------------------------------------------------3x---------------------|
------------------------------------------------------------------------------|
------------------------------------------------------------------------------|
------------------------------------------------------------------------------|
                                 distorcion

-1-1-1-1-3--------------------------------------------------------------------|
-1-1-1-1-3--------------------------------------------------------------------|
-1-1-1-1-3--------------------------------------------3x----------------------|
-1-1-1-1-3--------------------------------------------------------------------|
------------------------------------------------------------------------------|
------------------------------------------------------------------------------|


-1-1-1-1-3-4-5-6--------------------------------------------------------------|
-1-1-1-1-3-4-5-6--------------------------------------------------------------|
-1-1-1-1-3-4-5-6--------------------------------------------------------------|
-1-1-1-1-3-4-5-6--------------------------------------------------------------|
------------------------------------------------------------------------------|
------------------------------------------------------------------------------|


-7-----7-----7-----5-----5-----3-----1-----0----------------------------------|
---9-----9-----9-----7-----7-----5-----3--------------------------------------|
-----9-----9-----9-----7-----7-----5-----3------------------------------------|
------------------------------------------------------------------------------|
------------------------------------------------------------------------------|
------------------------------------------------------------------------------|
                      Clean(eco)                               Outro
Comments