Fandangle - Shits And Giggles Chords & Tabs

 

Shits And Giggles Chords & Tabs

Fandangle Chords & Tabs

Version: 1 Type: Bass Tab 0 ratings
1 star 2 stars 3 stars 4 stars 5 stars
comments

Shits And Giggles Bass Tab

   
FANDANGLE is a band that plays in england, Their Website is http://fandangle.moonfruit.com/ 
and their pure volume is
http://www.purevolume.com/fandangle
they are on Moonska Europe and are skacore and have played over 300 shows

-------------------------------------------------------------------------------
			     Shits and Giggles - Fandangle
-------------------------------------------------------------------------------

Tabbed By : Basscase
e-mail: Basscase@gmail.com

Tuning:EADG

Intro 1 - No Bass

Intro 2 X 4
G|---------------------------------------------------------------------------|
D|---------------------------------------------------------------------------|
A|----5555------3333---------------------------------------------------------|
E|---------5555-----3333-----------------------------------------------------|

VERSE X5
G|-------------------------------------|
D|--4544---------2322------------------|
A|-5------4544--3------2322------------|
E|-------5------------3----------------|

G|-------------------------------------|
D|--4544---------2322------------------|
A|-5------4544--3----------------------|
E|-------5------------3-3--------------|

CHORUS
G|------------------------|
D|------------------------|
A|----5555------3333------| X2
E|---------5555-----3333--|

G|------------------------|
D|------------------------| X2
A|---5-5-----3-3----------|
E|-------5-5-----3-3------|
[ Tab from: http://www.guitartabs.cc/tabs/f/fandangle/shits_and_giggles_btab.html ]
Verse 2 pt 1 X3
G|-------------------------------------|
D|--4544---------2322------------------|
A|-5------4544--3------2322------------|
E|-------5------------3----------------|

G|-------------------------------------|
D|--4544---------2322------------------|
A|-5------4544--3----------------------|
E|-------5------------3-3--------------|

VERSE 2 Pt. 2
G|-----------------------------------------------|
D|-----------------------------------------------|X3
A|----5-5--------3-3-----------------------------|
E|--------5-5--------3-3-------------------------|

G|---------------5--3----------------------------|
D|--------------------5--3-----------------------|
A|----5-5-------------------5--3-----------------|
E|---------5-5-----------------------------------|

CHORUS
G|------------------------|
D|------------------------|
A|----5555------3333------| X2
E|---------5555-----3333--|

G|------------------------|
D|------------------------| X2
A|---5-5-----3-3----------|
E|-------5-5-----3-3------|


BRIDGE
G|------77-----------55------------|
D|------------77-------------55----|
A|---55-----------33---------------| X4
E|---------55------------33--------|

OUTRO
G|------------------------|
D|------------------------|
A|----5555------3333------| X8
E|---------5555-----3333--| 


| /  slide up
| \  slide down
| h  hammer-on
| p  pull-off
| ~  vibrato
| +  harmonic
| x  Mute note
===============================================================================
Comments