Family Force 5 - Earthquake Chords & Tabs

 

Earthquake Chords & Tabs

Family Force 5 Chords & Tabs

Version: 2 Type: Tab

Earthquake Tab

   
Family Force 5 - Earthquake
Drop D
Effects: Distortion

E-----------------------------------------------------------------|
B-----------------------------------------------------------------|
G-----------------------------------------------------------------|
D-0--1--2--0--1-2-0--1--2--0--1-2-0--1--2--0--1-2-33-33-33-33-3-3-|
A-0--1--2--0--1-2-0--1--2--0--1-2-0--1--2--0--1-2-33-33-33-33-3-3-|
D-0--1--2--0--1-2-0--1--2--0--1-2-0--1--2--0--1-2-33-33-33-33-3-3-|


-------|
-------|
-------|
-0-1-2-| X4
-0-1-2-|
-0-1-2-|


----------------|
----------------|
----------------|
-2-2-3----2-2-0-| X3
-2-2-3----2-2-0-|
-2-2-3----2-2-0-|


---------------------------------------------------|
---------------------------------------------------|
---------------------------------------------------|
-2--2--3--0--2-3-2--2--3--0--2-3-2--2--3--0--2-3-2-| X2
-2--2--3--0--2-3-2--2--3--0--2-3-2--2--3--0--2-3-2-|
-2--2--3--0--2-3-2--2--3--0--2-3-2--2--3--0--2-3-2-|


---------------------------------|
---------------------------------|
---------------------------------|
-0--1--2--0--1-2-33-33-33-33-3-3-|
-0--1--2--0--1-2-33-33-33-33-3-3-|
-0--1--2--0--1-2-33-33-33-33-3-3-|

[ Tab from: http://www.guitartabs.cc/tabs/f/family_force_5/earthquake_tab_ver_2.html ]
-------|
-------|
-------|
-0-1-2-| X4
-0-1-2-|
-0-1-2-|


----------------|
----------------|
----------------|
-2-2-3----2-2-0-| X3
-2-2-3----2-2-0-|
-2-2-3----2-2-0-|


---------------------------------------------------|
---------------------------------------------------|
---------------------------------------------------|
-2--2--3--0--2-3-2--2--3--0--2-3-2--2--3--0--2-3-2-| X2
-2--2--3--0--2-3-2--2--3--0--2-3-2--2--3--0--2-3-2-|
-2--2--3--0--2-3-2--2--3--0--2-3-2--2--3--0--2-3-2-|


---------------------------------------------------|
---------------------------------------------------|
---------------------------------------------------|
-2--2--3--0--2-3-2--2--3--0--2-3-2--2--3--0--2-3-2-| X2
-2--2--3--0--2-3-2--2--3--0--2-3-2--2--3--0--2-3-2-|
-2--2--3--0--2-3-2--2--3--0--2-3-2--2--3--0--2-3-2-|


-----------------------------------------------------------------|
-----------------------------------------------------------------|
-----------------------------------------------------------------|
-0--1--2--0--1-2-0--1--2--0--1-2-0--1--2--0--1-2-33-33-33-33-3-3-|
-0--1--2--0--1-2-0--1--2--0--1-2-0--1--2--0--1-2-33-33-33-33-3-3-|
-0--1--2--0--1-2-0--1--2--0--1-2-0--1--2--0--1-2-33-33-33-33-3-3-|