False Alliance - Jesus Clone Chords & Tabs

 

Jesus Clone Chords & Tabs

False Alliance Chords & Tabs

Version: 2 Type: Bass Tab 0 ratings
1 star 2 stars 3 stars 4 stars 5 stars
comments

Jesus Clone Bass Tab

Song: Jesus Clone
Band: False Alliance
Album: False Alliance



INTRO PART 1:
G:---------------------------------------------------------------
D:---------------------------------------------------------------
A:--5--------5---------5---------5-----------------------------------
E:-----6--3------6--3-----6--3------6--3--------------------------------

INTRO PART 2:
G:---------------------------------------------------------------
D:---------------------------------------------------------------
A:-555-----------------------5555---------------------------------------
E:-------666--3333--5555---------6666--3333--5555-----------------------------
------------
[ Tab from: http://www.guitartabs.cc/tabs/f/false_alliance/jesus_clone_btab_ver_2.html ]
VERSE:
G:---------------------------------------------------------------
D:-----------------------------------------1-3---------------------
A:--5-4-3-0----4-------------3-5--1-3--------------------------------------
E:-------------6----6-4--3-5--------------------------------------------

CHORUS:
G:---------------------------------------------------------------
D:----------------------------------3-2----------------------------
A:--5-4-3-0----4-------4-3-2-0--------------------------------------------
E:-------------6----6-4---------------------------------------------

CHOUS PART 2:
G:-----7----------------------8------------------------------------
D:------------8-------7--------------------------------------------
A:-55-------------------66-------------------------------------------
E:--------66-----55--------------------------------------------------

Comments