Falling Up - Remembering Them Chords & Tabs

 

Remembering Them Chords & Tabs

Falling Up Chords & Tabs

Version: 1 Type: Tab 0 ratings
1 star 2 stars 3 stars 4 stars 5 stars
comments

Remembering Them Tab

Intro:

-----5-----------------------------------------------
----------5------------------------------------------
--6----6--------------------------------------------- x4
-----------------------------------------------------
-----------------------------------------------------
----------------------------------------------------- end on
                                                          ---5---------
                                                          ---5---------
                                                          ---6---------
                                                          -------------
                                                          -------------
                                                          -------------
[ Tab from: http://www.guitartabs.cc/tabs/f/falling_up/remembering_them_tab.html ]
-----------------------------------------------------
-----------------------------------------------------
----------------------------------------------------- x10
-----3-----4-3---------------------------------------
-4-4---4-4-------------------------------------------
-----------------------------------------------------

Verse:

------------------------------------------------------
------------------------------------------------------
------2-----2-----2-----2------2-----2-----2-----2---- x5
--0-0---0-0---0-0---0-0----2-2---2-2---2-2---2-2------
------------------------------------------------------
------------------------------------------------------


chorus:

------------------------------------------------------
------------------------------------------------------
------------------------------------------------------
-5-5-5-5--4-4-4-4--5-5-5-5---------------------------- x6
-5-5-5-5--4-4-4-4--5-5-5-5----------------------------
-7-7-7-7--2-2-2-2--7-7-7-7----------------------------


Interlude:

-----------------------
-----------------------
----------------------- x6
-------6-5-------------
---6-6-----------------
-----------------------

This song is dedicated to FLOPPY
                          ------
By: Brad, Nick, Eric
Comments