Falling Up - Moonlit Chords & Tabs

 

Moonlit Chords & Tabs

Falling Up Chords & Tabs

Version: 1 Type: Tab 1 rating
1 star 2 stars 3 stars 4 stars 5 stars
comments

Moonlit Tab

Moonlit-Falling Up
Drop D Tuning DADGBE

p=pull off
=harmonic

Intro
Keyboard first
then...
B[--10p8----------------10p8--]
G[------9--12p9-10/10/10----9-]
D[-0-----0-------x--x--x------]
A[-0-------------8--8--8------]x4
D[-0--------------------------]

Verse 1
G[---7-5-xxx----]
D[-0-7-5-xxx----]
A[-0-5-3-xxx----]x8
D[-0-----xxx-------]

Pre-Chorus
G[10------]
D[10----0-]
A[-8----0-]
D[-8----0-]

Chorus 
G[-7-10-----12-]
D[-7-10--0--12-]
A[-5--8--0--10-]x2
D[-5--8--0--10-]

Post-Chorus
B[--10p8----------------10p8--]
G[------9--12p9-10/10/10----9-]
D[-0-----0-------x--x--x------]
A[-0-------------8--8--8------]x2
D[-0--------------------------]

Verse 2
Same as Verse 1

Pre-Chorus 2
G[10------]
D[10----0-]
A[-8----0-]x2
D[-8----0-]

Chorus
[ Tab from: http://www.guitartabs.cc/tabs/f/falling_up/moonlit_tab.html ]
Bridge
B[--10p8----------------10p8--]
G[------9--12p9-10/10/10----9-]
D[-0-----0-------x--x--x------]
A[-0-------------8--8--8------]x7
D[-0--------------------------]

B[--10p8----------]
G[------9--12p9---]
D[-0-----0------0-]
A[-0------------0-]
D[-0------------0-]

Chorus 2
G[-7-10-----12-]
D[-7-10--0--12-]
A[-5--8--0--10-]
D[-5--8--0--10-]

G[-7-10---]
D[-7-10---]
A[-5--8---]Stop
D[-5--8---]
then...
G[----12-]
D[-0--12-]
A[-0--10-]
D[-0--10-]

G[-7-10-----12-]
D[-7-10--0--12-]
A[-5--8--0--10-]
D[-5--8--0--10-]

G[-7-10---]
D[-7-10---]
A[-5--8---]
D[-5--8---]

Ending
B[--10p8----------------10p8--]
G[------9--12p9-10/10/10----9-]
D[-0-----0-------x--x--x------]
A[-0-------------8--8--8------]x2
D[-0--------------------------]


sencerly, Rock_God1023
Comments