Falling Up - Exit Calypsan Chords & Tabs

 

Exit Calypsan Chords & Tabs

Falling Up Chords & Tabs

Version: 1 Type: Tab 0 ratings
1 star 2 stars 3 stars 4 stars 5 stars
comments

Exit Calypsan Tab

   
Exit Calypsan-Falling Up
Album:X2005
Drop D Tuning D-A-D-G-B-E

Intro
B[---0--0----0--0----0--0-3/3-2/2----0--0----0--0----3--3-2/2/2-]
G[--2--2----2--2----2--2------------2--2----2--2----2--2--------]
D[-4--4----4--4----4--4------------4--4----4--4----4--4---------]

Verse 1
E[----------------------------]
B[----------------------------]
G[-4s7-7777--9s11-11/11/11/11-]
D[-4s7-7777--9s11-11/11/11/11-]
A[-2s5-5555--7s-9--9--9--9--9-]x2
D[-2s5-5555--7s-9--9--9--9--9-]

(The other guitar plays these riffs in between)
E[---------14-------------------10---]
B[-----------15-------------------10-]
G[-4s7-7777-----9s11-11/11/11/11-----]
D[-4s7-7777-----9s11-11/11/11/11-----]
A[-2s5-5555-----7s-9--9--9--9--9-----]
D[-2s5-5555-----7s-9--9--9--9--9-----]

E[---------14-------------------14-19-]
B[-----------15-----------------------]
G[-4s7-7777-----9s11-11/11/11/11------]
D[-4s7-7777-----9s11-11/11/11/11------]
A[-2s5-5555-----7s-9--9--9--9--9------]
D[-2s5-5555-----7s-9--9--9--9--9------]

Pre-Chorus
Gtr.2
G[-7--9-11-]
D[-7--9-11-]
A[-5--7--9-]x2
D[-5--7--9-]

Gtr.1
B[---0--0----0--0----0--0-3/3-2/2----0--0----0--0----3--3-2/2/2-]
G[--2--2----2--2----2--2------------2--2----2--2----2--2--------]
D[-4--4----4--4----4--4------------4--4----4--4----4--4---------]

Chorus
G[-4-4-4-4-11-11-11-11-7-7-7-7-9-9-9-9-]
D[-4-4-4-4-11-11-11-11-7-7-7-7-9-9-9-9-]
A[-2-2-2-2--9--9--9--9-5-5-5-5-7-7-7-7-]x4
D[-2-2-2-2--9--9--9--9-5-5-5-5-7-7-7-7-]
[ Tab from: http://www.guitartabs.cc/tabs/f/falling_up/exit_calypsan_tab.html ]
Post-Chorus
E[---------14-------------------10---]
B[-----------15-------------------10-]
G[-4s7-7777-----9s11-11/11/11/11-----]
D[-4s7-7777-----9s11-11/11/11/11-----]
A[-2s5-5555-----7s-9--9--9--9--9-----]
D[-2s5-5555-----7s-9--9--9--9--9-----]

E[---------14-------------------14-19-]
B[-----------15-----------------------]
G[-4s7-7777-----9s11-11/11/11/11------]
D[-4s7-7777-----9s11-11/11/11/11------]
A[-2s5-5555-----7s-9--9--9--9--9------]
D[-2s5-5555-----7s-9--9--9--9--9------]

Verse 2
E[---------14-------------------10---]
B[-----------15-------------------10-]
G[-4s7-7777-----9s11-11/11/11/11-----]
D[-4s7-7777-----9s11-11/11/11/11-----]
A[-2s5-5555-----7s-9--9--9--9--9-----]
D[-2s5-5555-----7s-9--9--9--9--9-----]

E[---------14-------------------14-19-]
B[-----------15-----------------------]
G[-4s7-7777-----9s11-11/11/11/11------]
D[-4s7-7777-----9s11-11/11/11/11------]
A[-2s5-5555-----7s-9--9--9--9--9------]
D[-2s5-5555-----7s-9--9--9--9--9------]

E[---------14-------------------10---]
B[-----------15-------------------10-]
G[-4s7-7777-----9s11-11/11/11/11-----]
D[-4s7-7777-----9s11-11/11/11/11-----]
A[-2s5-5555-----7s-9--9--9--9--9-----]
D[-2s5-5555-----7s-9--9--9--9--9-----]

E[---------14-------------------14-19-]
B[-----------15-----------------------]
G[-4s7-7777-----9s11-11/11/11/11------]
D[-4s7-7777-----9s11-11/11/11/11------]
A[-2s5-5555-----7s-9--9--9--9--9------]
D[-2s5-5555-----7s-9--9--9--9--9------]

Pre-Chorus
Chorus

Bridge
G[-4-4-4-4-11-11-11-11-7-7-7-7-9-9-9-9-]
D[-4-4-4-4-11-11-11-11-7-7-7-7-9-9-9-9-]
A[-2-2-2-2--9--9--9--9-5-5-5-5-7-7-7-7-]x4
D[-2-2-2-2--9--9--9--9-5-5-5-5-7-7-7-7-]

Chorus x2
(The first time they use some sort of pedal
 to make the guitar sound like it's in the
 backround. But the second time they kick 
 the guitars back in.)

T\B-Rock_God1023
Comments