Falling Up - Exhibition Chords & Tabs

 

Exhibition Chords & Tabs

Falling Up Chords & Tabs

Version: 1 Type: Tab 0 ratings
1 star 2 stars 3 stars 4 stars 5 stars
comments

Exhibition Tab

   
ok guize, this song's tuning is really weird so here it is,enjoy!

Falling Up-Exhibition
From:Dawn Escapes
Drop C Tuning C-G-C-F-A-D

palm mute=..., etc.
=harmonic
**=let it ring
s=slide

Intro
Piano then
A[----------0---]
F[----------0---]
C[-5---7---10---]
G[-3---5----7---]x4
C[-3---5----7---]

Verse 1
C[-7---5/7--7---5/7--3/3xxx3x3--5/5xxx5x5-]
G[-7---5/7--7---5/7--3/3xxx3x3--5/5xxx5x5-]
C[-7---5/7--7---5/7--3/3xxx3x3--5/5xxx5x5-]

C[-7---5/7--7---5/7--3/3xxx3x3--5/5xxx5-]
G[-7---5/7--7---5/7--3/3xxx3x3--5/5xxx5-]
C[-7---5/7--7---5/7--3/3xxx3x3--5/5xxx5-]

Pre-Chorus
Gtr. 1
D[-5/5/5/5/5/5/5/5/5/5/5/5-]x4
   .......................
Gtr. 2
D[------15------15-------15--------]
A[-12/13---12/13---12--13---12--13-]x4

Chorus
Both Guitars
C[-5/5/5-5/5-7/7-7-12/12/12-12/10-12/12/12/12/10/10-]
G[-3/3/3-3/3-5/5-5--7--7--7--7--7--7--7--7--7--7--7-]
C[-3/3/3-3/3-5/5-5--7--7--7--7--7--7--7--7--7--7--7-]

C[-12/12/12/12/12/12--7-7/7/7/7/7/7/7/7-]
G[-10/10/10/10/10/10--5-5/5/5/5/5/5/5/5-]
C[-10/10/10/10/10/10--5-5/5/5/5/5/5/5/5-]
Always Play Chorus x2

Post-Chorus
A[----------0---]
F[----------0---]
C[-5---7---10---]
G[-3---5----7---]x2
C[-3---5----7---]
[ Tab from: http://www.guitartabs.cc/tabs/f/falling_up/exhibition_tab.html ]
Verse 2
F[---------------------------------------------]
C[-7---7/5/7--7---7/5/7--3/3xxx3x3xxx5/5xxx5x5-]
G[-7------7/5/7--7------7/5/7--3/3xxx3x3xxx5/5xxx5x5-]
C[-7------7/5/7--7------7/5/7--3/3xxx3x3xxx5/5xxx5x5-]

F[-------------------------------------------]
C[-7---7/5/7--7---7/5/7--3/3xxx3x3xxx5/5xxx5-]
G[-7------7/5/7--7------7/5/7--3/3xxx3x3xxx5/5xxx5-]
C[-7------7/5/7--7------7/5/7--3/3xxx3x3xxx5/5xxx5-]

Pre-Chorus

Chorus

Interlude
Gtr. 1
C[-3**s5**s7--3**s5**s7-]
G[-3**s5**s7--3**s5**s7-]
C[-3**s5**s7--3**s5**s7-]
              .
Gtr. 2
D[-5/5/5/5/5/5/5/5/5/5/5/5-]x8
   .......................
Gtr. 3
D[-12---------------12/12-0--12-----------------------]
A[-----12---13--------------------12---13-------------]
F[------------12-14----------------------12-14-----]x2
C[-------------------------------------------------]
Then
Gtr.1
C[-7/7/7/7/7/7/7/7-]
G[-7/7/7/7/7/7/7/7-]
C[-7/7/7/7/7/7/7/7-]
   ...............

Bridge
F[---2-5/4---2/2/2-4/4/4---2-5/4---2/2/2-5/4/2-]
C[-0/2-x/x/0/2/2/2-x/x/x-0/2-x/x/0/2/2/2-x/x/2-]
G[-0/0-3/2/0/0/0/0-2/2/2-0/0-3/2/0/0/0/0-3/2/0-]
C[-0-------0-------------0-------0-------------]

C[-5/5/5/5/5/5/5/5-7/7/7/7/7/7/7/7-]
G[-3/3/3/3/3/3/3/3-5/5/5/5/5/5/5/5-]
C[-3/3/3/3/3/3/3/3-5/5/5/5/5/5/5/5-]
Repeat Bridge

Chorus

Ending
A[----------0---]
F[----------0---]
C[-5---7---10---]
G[-3---5----7---]x3
C[-3---5----7---]
Then
A[--------0---]
F[--------0---]
C[-5---7-10---]
G[-3---5--7---]
C[-3---5--7---]

T\Brock_god1023
Comments