Falling Up - Escalates Chords & Tabs

 

Escalates Chords & Tabs

Falling Up Chords & Tabs

Version: 1 Type: Tab 1 rating
1 star 2 stars 3 stars 4 stars 5 stars
comments

Escalates Tab

   
Falling Up-Escalates
Drop D Tuning D-A-D-G-B-E

Verse
D[-10--10-10--4-4-4-3----4-4-6-6-]
A[--8---8--8--4-4-4--4-4-4-4-6-6-]x4
D[--8---8--8--4-4-4------4-4-6-6-]
P.M.          .....      ...   
Pre-Chorus
D[-4-4-4-4-6-6-6-6-]
A[-4-4-4-4-6-6-6-6-]
D[-4-4-4-4-6-6-6-6-]

Chorus
D[-1010--101010--1010--1010--101010--1010--44-444--44--44--444--44-]
A[--8-8---8-8-8---8-8---8-8---8-8-8---8-8--44-444--44--44--444--44-]
D[--8-8---8-8-8---8-8---8-8---8-8-8---8-8--44-444--44--44--444--44-]
 
D[-1010--101010--1010--1010--101010--1010--44-444--44--66--666--66--8--8-]
A[--8-8---8-8-8---8-8---8-8---8-8-8---8-8--44-444--44--66--666--66--8--8-]
D[--8-8---8-8-8---8-8---8-8---8-8-8---8-8--44-444--44--66--666--66--8--8-]

Verse
Pre-Chorus
[ Tab from: http://www.guitartabs.cc/tabs/f/falling_up/escalates_tab.html ]
Chorus 2
D[-1010--101010--1010--1010--101010--1010--44-444--44--44--444--44-]
A[--8-8---8-8-8---8-8---8-8---8-8-8---8-8--44-444--44--44--444--44-]
D[--8-8---8-8-8---8-8---8-8---8-8-8---8-8--44-444--44--44--444--44-]
 
D[-1010--101010--1010--1010--101010--1010--44-444--44--66--666--66-]
A[--8-8---8-8-8---8-8---8-8---8-8-8---8-8--44-444--44--66--666--66-]
D[--8-8---8-8-8---8-8---8-8---8-8-8---8-8--44-444--44--66--666--66-]

Bridge
G[-6-6-6-5-5-5-5---6-6-6-]
D[-6-6-6-6-6-6-6---6-6-6-]
A[-4-4-4-3-3-3-3---4-4-4-]
Then...
D[-8-8-8-8-8-8-8-8-8-8-8-8-]
A[-8-8-8-8-8-8-8-8-8-8-8-8-]
D[-8-8-8-8-8-8-8-8-8-8-8-8-]
P.M......................
Then...
D[-4-4-4-4-6-6-6-6-8-8-8-8-8-8-8-8-]
A[-4-4-4-4-6-6-6-6-8-8-8-8-8-8-8-8-]x2
D[-4-4-4-4-6-6-6-6-8-8-8-8-8-8-8-8-]

Chorus 3
Starts with Bass
Then...
D[-44-444--44--44--444--44-]  
A[-44-444--44--44--444--44-]
D[-44-444--44--44--444--44-]

D[-1010--101010--1010--1010--101010--1010--44-444--44--66--666--66-]
A[--8-8---8-8-8---8-8---8-8---8-8-8---8-8--44-444--44--66--666--66-]
D[--8-8---8-8-8---8-8---8-8---8-8-8---8-8--44-444--44--66--666--66-]

D[-4-4-4-4-6-6-6-6-8-8-8-8-8-8-8-8-]
A[-4-4-4-4-6-6-6-6-8-8-8-8-8-8-8-8-]
D[-4-4-4-4-6-6-6-6-8-8-8-8-8-8-8-8-]

D[-4-4-4-4-6-6-6-6-8-8-8-8-11-11-11-11-]
A[-4-4-4-4-6-6-6-6-8-8-8-8-11-11-11-11-]
D[-4-4-4-4-6-6-6-6-8-8-8-8-11-11-11-11-]

End On 
D[-4-]
A[-4-]
D[-4-]

t\b- Rock_God1023
Comments