Falling Up - Broken Heart Chords & Tabs

 

Broken Heart Chords & Tabs

Falling Up Chords & Tabs

Version: 1 Type: Tab 0 ratings
1 star 2 stars 3 stars 4 stars 5 stars
comments

Broken Heart Tab

   
DROP D TUNING
eBGDAD

Intro (Palm muted)
e]--------------------------------------------------------------------
B]--------------------------------------------------------------------
G]-------------------------------------------------------------------- 4X
D]046662/66-----------------------------------------------------------
A]046662/66-----------------------------------------------------------
D]046662/66-----------------------------------------------------------

Verse 1
e]--------------------------------------------------------------------
B]--------------------------------------------------------------------
G]--------------------------------------------------------------------
D]046662/66-046662/66----4~-------------------------------------------
A]046662/66-046662/66-4X-4~-------------------------------------------
D]046662/66-046662/66----4~-------------------------------------------

Chorus (scratch strings four times)
e]--------------------------------------------------------------------
B]--------------------------------------------------------------------
G]--------------------------------------------------------------------
D]222222()2444444()46666666644444444222222()2444444()46666666644444444
A]222222()2444444()46666666644444444222222()2444444()46666666644444444
D]222222()2444444()46666666644444444222222()2444444()46666666644444444

Verse 2
e]--------------------------------------------------------------------
B]--------------------------------------------------------------------
G]--------------------------------------------------------------------
D]046662/66-046662/66----4~-------------------------------------------
A]046662/66-046662/66-4X-4~-------------------------------------------
D]046662/66-046662/66----4~-------------------------------------------
[ Tab from: http://www.guitartabs.cc/tabs/f/falling_up/broken_heart_tab.html ]
Chorus (no scratch this time)
e]--------------------------------------------------------------------
B]--------------------------------------------------------------------
G]--------------------------------------------------------------------
D]222222()2444444()46666666644444444222222()2444444()46666666644444444
A]222222()2444444()46666666644444444222222()2444444()46666666644444444
D]222222()2444444()46666666644444444222222()2444444()46666666644444444

Bridge
e]--------------------------------------------------------------------
B]--------------------------------------------------------------------
G]---1111----1111------8---------8------------------------------------
D]22-x-x--44-x-x--9-8-0-x--9-8-0-x------------------------------------2X
A]22-9-9--44-9-9--6-6-0-6--6-6-0-6------------------------------------
D]22------44--------6-6-0----6-6-0------------------------------------

Chorus 2 (it might look like I messed up here, but it's right)
e]--------------------------------------------------------------------
B]--------------------------------------------------------------------
G]--------------------------------------------------------------------
D]22222222444444()46666666644444444222222()2444444()46666666644444444-
A]22222222444444()46666666644444444222222()2444444()46666666644444444-
D]22222222444444()46666666644444444222222()2444444()46666666644444444-

Ending 
e]--------------------------------------------------------------------
B]--------------------------------------------------------------------
G]--------------------------------------------------------------------
D]222222()2444444()46666666644444444222222()2444444()46666666644444444 2X
A]222222()2444444()46666666644444444222222()2444444()46666666644444444
D]222222()2444444()46666666644444444222222()2444444()46666666644444444

Outro
e]--------------------------------------------------------------------
B]--------------------------------------------------------------------
G]-----------------------1111----1111-------8-------------------------
D]046662/66-046662/66-22-x-x--44-x-x--9-8-0-x-------------------------
A]046662/66-046662/66-22-9-9--44-9-9--6-6-0-6-------------------------
D]046662/66-046662/66-22------44--------6-6-0-------------------------

End On
e]---------
B]---------
G]---------
D]2~-------
A]2~-------
D]2~-------

Sorry about that () mean dead string 

T\B-Rock_God1023
Comments