Falling Up - Bittersweet Chords & Tabs

 

Bittersweet Chords & Tabs

Falling Up Chords & Tabs

Version: 1 Type: Tab 0 ratings
1 star 2 stars 3 stars 4 stars 5 stars
comments

Bittersweet Tab

   
Falling Up-Bittersweet
Drop D Tuning D-A-D-G-B-E  
P.M....etc.=Palm mute
Intro
D[-9009009009009-9-]
A[-9009009009009-9-]x4
D[-9009009009009-9-]
P.M........................
Then
D[-009009009009-9-7--7--4-4-4--7-7-7-7-7-7-7-7----3-2-]
A[-009009009009-9-7--7--2-2-2--5-5-5-5-5-5-5-5----3-2-]
D[-009009009009-9-7--7--2-2-2--5-5-5-5-5-5-5-5----3-2-]
[ Tab from: http://www.guitartabs.cc/tabs/f/falling_up/bittersweet_tab.html ]
Verse
B[----------8-7-0---------] 
G[------------------------] 
D[-9-9-9-9----------9--9-]x4 [-4-] 
A[-9-9-9-9----------9--9-]Then [-2-](this aligning got messed up some how)
D[-9-9-9-9----------9--9-] [-2-]
Repeat Verse
Then...
D[-7-7-7-7-7-7-7-7-]
A[-5-5-5-5-7-7-7-7-]
D[-5-5-5-5-7-7-7-7-]

Chorus
D[-009009009009-9-7--7--4-4-4--7-7-7-7-7-7-7-7-]
A[-009009009009-9-7--7--2-2-2--5-5-5-5-5-5-5-5-]x2
D[-009009009009-9-7--7--2-2-2--5-5-5-5-5-5-5-5-]

Verse 2
(Same as Verse 1)
Chorus
Intro

Bridge
(Acoustic)
G A
(Distortion)
D[-7-7-7-7-7-7-7-7-]
A[-5-5-5-5-7-7-7-7-]x3
D[-5-5-5-5-7-7-7-7-]
Then...
G[------10-----11--]
D[-3s750--3s750----]
A[-3s750--3s750----]x4?
D[-3s750--3s750----]

Chorus

T\B-Rock_God1023
Comments