Falling Up - Ambience Chords & Tabs

 

Ambience Chords & Tabs

Falling Up Chords & Tabs

Version: 1 Type: Tab 1 rating
1 star 2 stars 3 stars 4 stars 5 stars
comments

Ambience Tab

   

Artist:Falling Up
Album: Crashings
Song: Ambience
tuning-Drop D

there is a keyboard and a guitar in the intro... 
intro 
guitar...with alot of delay
e--11-11-12-12-11-11--
b
g
 
the keybord plays this i THINK with alot of delay
d-------
a-6-4h6
d-------

then the guitar comes in like so....
pm. through out
d-9-9-9--99--9-9-9--99--7-7-7--77--7-7-7--77
a-9-9-9--99--9-9-9--99--7-7-7--77--7-7-7--77
d-9-9-9--99--9-9-9--99--7-7-7--77--7-7-7--77
then the same without pm.
guitar to for the verse as such...
e---------------------4------------------
g-4-4--4--------4-4--4--------------------
b--------4----------------444-4-----444-4-
[ Tab from: http://www.guitartabs.cc/tabs/f/falling_up/ambience_tab.html ]
ok folks, this chorus was hard to figure out, and i dont think its right? 
if u know then email me please, its was hard!!!!!
hear it does
e
b
g--------------------------------------------
D-6-6-66-4/6-6/8-8/9   6-6-66-2-2-2-2-2-2-2-2
a-4-4-44-2/4-4/6-6/7x2 4-4-44-0-0-0-0-0-0-0-0
d--------------------------------------------

2nd verse
same as first except the chords
just hold them out and let them sustain,,,it out thill they change
d-11,,,,--7,,,,,
a-11,,,,--7,,,,,
d-11,,,,--7,,,,,x2

the wha part is...
g-9-9/8-8/9-9-9/8/4
D-x-x-x-x-x-x-x-x-x
a-7-7/6-6/7-7-7/6/2repeat

then...
g-99-9/8-8/9-9/8-8/9-6-6-6-6-6-6-6-6-
D-xxxxxxxxxxxxxxxxxx-6-6-6-6-6-6-6-6-
a-77-7/6-6/7-7/6-6/7-4-4-4-4-4-4-4-4-
D

then back to the chorus....

sucky tab i know but im just hoping u got the idea

Rock_God1023
Comments