Falling Sickness - Start Over Chords & Tabs

 

Start Over Chords & Tabs

Falling Sickness Chords & Tabs

Version: 1 Type: Bass Tab 0 ratings
1 star 2 stars 3 stars 4 stars 5 stars
comments

Start Over Bass Tab

SONG: START OVER
BAND: FALLING SICKNESS
TABBED BY: BEN MEYER benm@oakweb.com



INTRO:

G:-----------------------------------------------------
D:-----------------------------------------------------
A:--------------1-1-1-1-1-1----------------1-1-1-1-1-1-
E:-1-1-1-1-1-1----------------3-3-3-3-3-3--------------


SECOND INTRO:

G:-----------------------------------
D:-----------------------------------
A:--------2--------2-1-1-1-2-3-3-3-2-
E:-1-1-1----3-3-3--------------------


VERSE:
[ Tab from: http://www.guitartabs.cc/tabs/f/falling_sickness/start_over_btab.html ]
G:-----------------5-4-3-2---------------------------------------------
D:---------2-3-4-5----------5-4-3-2-------------2-3-4-5-5-3------------
A:---2-3-5-----------------------------2-3-4-5---------------5-4-3-----
E:-1---------------------------------3-----------------------------5-3-

G:-5-5-4-4-2-2---------------------------------------------
D:--------------5-5-4-4-2-2------2-4-------------5-4-3-2---
A:---------------------------2-4---------2-3-4-5---------3-
E:-------------------------------------3-------------------


CHORUS/PART IN BETWEEN VERSES:

G:-------------------------
D:-------------------------
A:-------------1-1-1-3-3-3-
E:-1-1-1-3-3-3-------------
Comments