Falling Sickness - Lurker Chords & Tabs

 

Lurker Chords & Tabs

Falling Sickness Chords & Tabs

Version: 1 Type: Bass Tab 0 ratings
1 star 2 stars 3 stars 4 stars 5 stars
comments

Lurker Bass Tab

SONG: LURKER
BAND: FALLING SICKNESS
TABBED BY: BEN MEYER benm@oakweb.com



INTRO:

G:---------
D:---------   (LET EACH NOTE RING OUT)
A:-7-----5-
E:----9----


INTRO TO VERSE:
[ Tab from: http://www.guitartabs.cc/tabs/f/falling_sickness/lurker_btab.html ]
G:------------------------------*---------------
D:------------------------------*---------------
A:-------5-5-5-7-7-7-7-3-2-0----*---------------   (PLAY PART BEFORE STARS 
E:-3-3-3----------------------3-*-3-3-3-3-3-3-3-    2x )


VERSE:

G:--------------------------
D:--------------------------
A:--------5-5-5-7-7-7-3-3-3-
E:-3-3-3--------------------

INTRO TO CHORUS:

G:---------------------
D:---------------------    (PLAY 3x)
A:------------5-5------
E:-3-3-3-3-3-------5-5-


CHORUS:

G:-------------------------------
D:-------------------------------
A:--------5-5-5-7-7-7-3-3-2-0----
E:-3-3-3-----------------------3-
Comments