Falling Sickness - Face The Clock Chords & Tabs

 

Face The Clock Chords & Tabs

Falling Sickness Chords & Tabs

Version: 1 Type: Bass Tab 0 ratings
1 star 2 stars 3 stars 4 stars 5 stars
comments

Face The Clock Bass Tab

BAND: FALLING SICKNESS
SONG: FACE THE CLOCK
TABBED BY: BEN MEYER bnem@oakweb.com



THIS IS A EASY SONG!


VERSE/CHORUS:

G:----------------------------------
D:----------------------------------
A:-5-5-5-5----------------------3-5-
E:----------5-5-5-5-7-7-7-7-3-5-----

[ Tab from: http://www.guitartabs.cc/tabs/f/falling_sickness/face_the_clock_btab.html ]
BASS SOLO THING:

G:----------------------------------------------------4-5-7---------
D:----------------------------------------------4-5-7-------7-5-----
A:-5-5-5-5--------------------------4-4-5-5-7-7-----------------7-5-
E:---------5-5-5-5-7-7-7-7-3-3-3-3----------------------------------
Comments