Falling In Reverse - I Am Not A Vampire Chords & Tabs

 

I Am Not A Vampire Chords & Tabs

Falling In Reverse Chords & Tabs

Version: 2 Type: Tab 0 ratings
1 star 2 stars 3 stars 4 stars 5 stars
comments

I Am Not A Vampire Tab

Falling In Reverse - I'm Not A Vampire Solo tab by Ray Chen
Drop C tuning.    

Watch cover and follow: http://www.youtube.com/watch?v=p8EL7OTaIwQ

D|-------------------|------------------|--------------------------------|--
A|-------------------|------------------|--12--12--10--12--8--12--7--12--|--
F|--9--12--11--12--x4|--8--11--9--11--x2|--------------------------------|--
C|-------------------|------------------|--------------------------------|--
G|-------------------|------------------|--------------------------------|--
C|-------------------|------------------|--------------------------------|--

D|-------------------|--------------11--14--11--------------------------------------|--
A|--8--12--10--12----|----------13--------------13--------------15--13--12----------|--
F|-----------------x4|--11--14----------------------14--11--14--------------14--11--|--
C|-------------------|--------------------------------------------------------------|--
G|-------------------|--------------------------------------------------------------|--
C|-------------------|--------------------------------------------------------------|--

D|-------------------|----------------------------------------|--
A|-------------------|----------------------------------------|--
F|--9--12--11--12--x4|--9--11--12--8--9--11--11--12--14--16*--|--
C|-------------------|----------------------------------------|--
G|-------------------|----------------------------------------|--
C|-------------------|----------------------------------------|--
[ Tab from: http://www.guitartabs.cc/tabs/f/falling_in_reverse/i_am_not_a_vampire_tab_ver_2.html ]
D|------------------|----------------------------------------|--
A|------------------|----------------------------------------|--
F|--8--11--9--11--x4|--8--9--11--9--11--12--11--12--14--16*--|--
C|------------------|----------------------------------------|--
G|------------------|----------------------------------------|--
C|------------------|----------------------------------------|--

D|-----------------|--5-----------5--8--5-----------5--8/11--8-|
A|--8--12--10--12--|-----7-----7-----------7-----7-------------|
F|-----------------|--------8-----------------8----------------|
C|-----------------|-------------------------------------------|
G|-----------------|-------------------------------------------|
C|-----------------|-------------------------------------------|

-------------8/14--11--------------11--14--|--
-10------10------------13------13----------|--
-----11--------------------14--------------|--
-------------------------------------------|--
-------------------------------------------|--
-------------------------------------------|--


D|--20--17------17----------------------------------|--
A|----------19------19------19----------------------|--
F|----------------------20------20--17--20--17------|--
C|----------------------------------------------19--|--
G|--------------------------------------------------|--
C|--------------------------------------------------|--

D|-----------------17h20p17------17h20p17-------------------------|--
A|-------------19------------19------------19---------------------|--
F|------17h20----------------------------------20p17--------------|--
C|--19------------------------------------------------19------17~~|--
G|--------------------------------------------------------21------|--
C|----------------------------------------------------------------|--


Watch cover: http://www.youtube.com/watch?v=p8EL7OTaIwQ

                
Comments