Fallen To - No Allies Chords & Tabs

 

No Allies Chords & Tabs

Fallen To Chords & Tabs

Version: 2 Type: Tab 0 ratings
1 star 2 stars 3 stars 4 stars 5 stars
comments

No Allies Tab

   
FALLEN TO
        NO ALLIES
 
     transcribed by = damian hughes

Tuning Drop C     C,G,C,F,A,D

             Listen to song for rhythm
Intro

clean
|---------------------
|---------------------
|---------------------
|---------------------
|---------------------
|-2-1-0-1--1-2-1-0-1--


heavy distortion
|--------------------------------
|--------------------------------
|-5----5-------------------------
|-3----3----9----9-9-9-9-8-8-8-8-
|-3----3----7--------------------
|-3----0----7--------------------


|-----------------
|-------0---------
|-------4---------
|-2--2--3---------
|-2--2--3---------
|-2--2--3---------



verse

flager    low volume
|-8----5----7-
|-x----x----x-
|-5----2----4-
|-------------
|-------------
|-------------

pre chorus
[ Tab from: http://www.guitartabs.cc/tabs/f/fallen_to/no_allies_tab_ver_2.html ]
heavy distirtion
|---------------------------------
|---------------------------------
|---------------------------------
|-x-x-x-x-2-2--2-2--0-2--2-2--0-2-
|-x-x-x-x-2-2--2-2--0-2--2-2--0-2-
|-x-x-x-x-2-2--2-2--0-2--2-2--0-2-


chorus

heavy distortion
|--------------------------------
|--------------------------------
|-5----5-------------------------
|-3----3----9----9-9-9-9-8-8-8-8-
|-3----3----7--------------------
|-3----0----7--------------------


|-----------------
|-------0---------
|-------4---------
|-2--2--3---------
|-2--2--3---------
|-2--2--3---------



second chorus

heavy distortion
|--------------------------------
|--------------------------------
|-5----5-------------------------
|-3----3----9----9-9-9-9-8-8-8-8-
|-3----3----7--------------------
|-3----0----7--------------------


|--------------------------------
|-------0------------------------
|-------4------------------------
|-2--2--3----9---9-9-9-9-8-8-8-8-
|-2--2--3----7-------------------
|-2--2--3----7-------------------



end part

heavy distortion
|--------------------
|--------------------
|--------------------
|--------------------
|-2-1-0-1--1-2-1-0-1-
|-2-1-0-1--1-2-1-0-1-


Thats it
enjoy
Comments