Fallen To - No Allies Chords & Tabs

 

No Allies Chords & Tabs

Fallen To Chords & Tabs

Version: 1 Type: Tab 0 ratings
1 star 2 stars 3 stars 4 stars 5 stars
comments

No Allies Tab

   
Fallen To - No Allies
this is one of my first tabs, no ones tabbed this yet and its so easy im gonna...

Drop D

after bass intro...

|-------------------
|-------------------
|-------------------
|-------------------
|-------------------
|-2-1-0-1--1-2-1-0-1


intro and chrous:
|-------------------------------------|
|-------------------------------------|
|-----3-3-3-3-3-3---------------------|
|-----1-1-1-1-1-1-7-7-7-888888-7777777|
|-----1-1-1-1-1-1-5-5-5---------------|
|-----1-1-1-1-1-1-5-5-5---------------|
[ Tab from: http://www.guitartabs.cc/tabs/f/fallen_to/no_allies_tab.html ]
end on in intro and 2nd chrous
|---------------|
|-----------4-4-|
|-----------3-3-|
|---1-1-1-1-3-3-|
|---1-1-1-1-3-3-|
|---1-1-1-1-3-3-|


verse:

|----------|
|--3---4---|
|--2---3---|
|--1---2---|
|----------|
|----------|

post chorus:
|----------------|
|----------------|
|----------------|
|-01-01-01-01-01-|
|-01-01-01-01-01-|
|-01-01-01-01-01-|


interlude:

|---------------------|
|-----4---------------|
|--3--3--3------------|
|--1--3--1--888888777-|  x4 (i think)
|--1--3--1------------|
|--1--3--1------------|

bass bit then...

|--------------------|
|--------------------|
|--------------------|
|-2-1-0-1--1-2-1-0-1-|
|-2-1-0-1--1-2-1-0-1-|
|-2-1-0-1--1-2-1-0-1-|

there u go not anything great but its alright 4 now any c0mments or anything else talk 2 
nature_boy2k@hotmail.com
Comments