Fall Out Boy - Yule Shoot Your Eye Out Chords & Tabs

 

Yule Shoot Your Eye Out Chords & Tabs

Fall Out Boy Chords & Tabs

Version: 3 Type: Tab 0 ratings
1 star 2 stars 3 stars 4 stars 5 stars
comments

Yule Shoot Your Eye Out Tab

   
                             YULE SHOOT YOUR EYE OUT
                           As recorded by Fall Out Boy
                       (From the 2003 Album A SANTA CAUSE)

Words and Music by Fall Out Boy
Transcribed by Ethereal Sin

Gtr I (E A D G B E) - 'Patrick'
Gtr II (E A D G B E) - 'Joe'

   Intro
    Acoustic Pop-Punk 1.107
    N.C.
   4/4
    Gtr I
    E E E E E E E E   E E E E E E E E
||------------------|------------------||
||o---4-2-0---5-4-0-|---4-2-0---5-4-0-o||
||------------------|------------------||
||--4-------4-------|-4-------4--------||
||o-----------------|-----------------o||
||------------------|------------------||


  2.
  E
  E   E   E   E   E   E   E   E
|---------------------------------|
|-----4---2---0-------5---4---0---|
|---------------------------------|
|-4---------------4---------------|
|---------------------------------|
|---------------------------------|
|
| Gtr II
| <               <
| S S S S S S S S S S S S S S S S
|---------------------------------|
|---------------------------------|
|-1-1-1-1-1-1-1-1-1-1-1-1-1-1-1-1-|
|-2-2-2-2-2-2-2-2-2-2-2-2-2-2-2-2-|
|-2-2-2-2-2-2-2-2-2-2-2-2-2-2-2-2-|
|-0-0-0-0-0-0-0-0-0-0-0-0-0-0-0-0-|


                                  1.
    B5        C#5                 G#5       E
    E E   E   E E   E   E   E     E E   E   E E   E   E   E
||------------------------------|-------------------------------||
||o---4---2---0-----5---4---0---|---4---2---0-----5---4---0----o||
||------------------------------|-------------------------------||
||--4-----------4---------------|-4-----------4-----------------||
||o-----------------------------|------------------------------o||
||------------------------------|-------------------------------||
|
|   E S S S S E S S S S S S S S   E S S S S E S S S S S S S S
||------------------------------|-------------------------------||
||o-----------------------------|------------------------------o||
||--4-4-4-4-4-6-6-6-6-6-6-6-6-6-|-----------1-1-1-1-1-1-1-1-1---||
||--4-4-4-4-4-6-6-6-6-6-6-6-6-6-|-6-6-6-6-6-2-2-2-2-2-2-2-2-2---||
||o-2-2-2-2-2-4-4-4-4-4-4-4-4-4-|-6-6-6-6-6-2-2-2-2-2-2-2-2-2--o||
||------------------------------|-4-4-4-4-4-0-0-0-0-0-0-0-0-0---||


                      Verse
  2.
                       B5        C#5
  E E   E   E H        E S S S S E S S S S S S S S
|------------------||------------------------------|
|---4---2---0------||o-----------------------------|
|------------------||--4-4-4-4-4-6-6-6-6-6-6-6-6-6-|
|-4----------------||--4-4-4-4-4-6-6-6-6-6-6-6-6-6-|
|------------------||o-2-2-2-2-2-4-4-4-4-4-4-4-4-4-|
|------------------||------------------------------|
|
| E S S S S E H        E S S S S E S S S S S S S S
|------------------||------------------------------|
|------------------||o-----------------------------|
|-----------1------||--4-4-4-4-4-6-6-6-6-6-6-6-6-6-|
|-6-6-6-6-6-2------||--4-4-4-4-4-6-6-6-6-6-6-6-6-6-|
|-6-6-6-6-6-2------||o-2-2-2-2-2-4-4-4-4-4-4-4-4-4-|
|-4-4-4-4-4-0------||------------------------------|


  G#5       E
  E S S S S E S S S S S S S S   4x
|-------------------------------||
|------------------------------o||
|-----------1-1-1-1-1-1-1-1-1---||
|-6-6-6-6-6-2-2-2-2-2-2-2-2-2---||
|-6-6-6-6-6-2-2-2-2-2-2-2-2-2--o||
|-4-4-4-4-4-0-0-0-0-0-0-0-0-0---||
|
| E S S S S E S S S S S S S S   4x
|-------------------------------||
|------------------------------o||
|-----------1-1-1-1-1-1-1-1-1---||
|-6-6-6-6-6-2-2-2-2-2-2-2-2-2---||
|-6-6-6-6-6-2-2-2-2-2-2-2-2-2--o||
|-4-4-4-4-4-0-0-0-0-0-0-0-0-0---||


 Pre-Chorus
  Eb/G        G#5      E
  S S S S S S E H      E S S S S S E S S S S S E
|--------------------|---------------------------|
|--------------------|---------------------------|
|--------------------|-1-1-1-1-1-1-1-1-1-1-1-1-1-|
|-5-5-5-5-5-5-6------|-2-2-2-2-2-2-2-2-2-2-2-2-2-|
|-6-6-6-6-6-6-6------|-2-2-2-2-2-2-2-2-2-2-2-2-2-|
|-3-3-3-3-3-3-4------|-0-0-0-0-0-0-0-0-0-0-0-0-0-|
|
| S S S S S S E H      E S S S S S E S S S S S E
|--------------------|---------------------------|
|--------------------|---------------------------|
|--------------------|-1-1-1-1-1-1-1-1-1-1-1-1-1-|
|-5-5-5-5-5-5-6------|-2-2-2-2-2-2-2-2-2-2-2-2-2-|
|-6-6-6-6-6-6-6------|-2-2-2-2-2-2-2-2-2-2-2-2-2-|
|-3-3-3-3-3-3-4------|-0-0-0-0-0-0-0-0-0-0-0-0-0-|


  Eb/G        G#5     B5      E
  S S S S S S E H             E S S S S S E S S S S S E
|---------------------------|----------------------------|
|---------------------------|----------------------------|
|---------------------------|-1-1-1-1-1-1-1-1-1-1-1-1-1--|
|-5-5-5-5-5-5-6-------------|-2-2-2-2-2-2-2-2-2-2-2-2-2--|
|-6-6-6-6-6-6-6-------------|-2-2-2-2-2-2-2-2-2-2-2-2-2--|
|-3-3-3-3-3-3-4-------------|-0-0-0-0-0-0-0-0-0-0-0-0-0--|
|
| S S S S S S Q   S S S S E   E S S S S S E S S S S S E
|---------------------------|----------------------------|
|---------------------------|----------------------------|
|---------------------------|-1-1-1-1-1-1-1-1-1-1-1-1-1--|
|-5-5-5-5-5-5-6---6-6S9-9-9S|=2-2-2-2-2-2-2-2-2-2-2-2-2--|
|-6-6-6-6-6-6-6---6-6S9-9-9S|=2-2-2-2-2-2-2-2-2-2-2-2-2--|
|-3-3-3-3-3-3-4---4-4S7-7-7S|=0-0-0-0-0-0-0-0-0-0-0-0-0--|


                                  1.
    Eb/G        G#5               E
    Gtrs I, II
    S S S S S S E S S S S E S S   E S S S S S E S S S S S E
||------------------------------|----------------------------||
||o-----------------------------|---------------------------o||
||------------------------------|-1-1-1-1-1-1-1-1-1-1-1-1-1--||
||--5-5-5-5-5-5-6-6-6-6-6-6-6-6-|-2-2-2-2-2-2-2-2-2-2-2-2-2--||
||o-6-6-6-6-6-6-6-6-6-6-6-6-6-6-|-2-2-2-2-2-2-2-2-2-2-2-2-2-o||
||--3-3-3-3-3-3-4-4-4-4-4-4-4-4-|-0-0-0-0-0-0-0-0-0-0-0-0-0--||


                 Chorus
  2.
  E     Em        B5          F#/Bb         E5          F#5
  Gtr I
   H     H        S S S S E E S S S S E E   S S S S E E S S S S E E   3x
|-^0----^0----||--------------------------|---------------------------||
|-^0----^0----||o-------------------------|--------------------------o||
|-^1----^0----||----------4-4---------3-3-|---------1-1---------------||
|-^2----^2----||--4-4-4-4-4-4-4-4-4-4-4-4-|---------2-2---------4-4---||
|-^2----^2----||o-2-2-2-2-2-2-1-1-1-1-1-1-|-2-2-2-2-2-2-4-4-4-4-4-4--o||
|-^0----^0----||--------------------------|-0-0-0-0-0-0-2-2-2-2-2-2---||
|
| Gtr II
|  W              S S S S E E S S S S E E   S S S S E E S S S S E E   3x
|-------------||--------------------------|---------------------------||
|-------------||o-------------------------|--------------------------o||
|-------------||----------4-4---------3-3-|---------1-1---------------||
|-------------||--4-4-4-4-4-4-4-4-4-4-4-4-|---------2-2---------4-4---||
|-------------||o-2-2-2-2-2-2-1-1-1-1-1-1-|-2-2-2-2-2-2-4-4-4-4-4-4--o||
|-------------||--------------------------|-0-0-0-0-0-0-2-2-2-2-2-2---||


                           Pre-Verse
  E           Em            B5        C#5
   W           W            E E   E   E E   E   E   E
|-^0--------|-^0--------||------------------------------|
|-^0--------|-^0--------||o---4---2---0-----5---4---0---|
|-^1--------|-^0--------||------------------------------|
|-^2--------|-^2--------||--4-----------4---------------|
|-^2--------|-^2--------||o-----------------------------|
|-^0--------|-^0--------||------------------------------|
|
|  W           W            E S S S S E S S S S S S S S
|-----------|-----------||------------------------------|
|-----------|-----------||o-----------------------------|
|-----------|-----------||--4-4-4-4-4-6-6-6-6-6-6-6-6-6-|
|-----------|-----------||--4-4-4-4-4-6-6-6-6-6-6-6-6-6-|
|-----------|-----------||o-2-2-2-2-2-4-4-4-4-4-4-4-4-4-|
|-----------|-----------||------------------------------|


  1.
  G#5       E
  E E   E   E E   E   E   E
|------------------------------||
|---4---2---0-----5---4---0---o||
|------------------------------||
|-4-----------4----------------||
|-----------------------------o||
|------------------------------||
|
| E S S S S E S S S S S S S S
|------------------------------||
|-----------------------------o||
|-----------1-1-1-1-1-1-1-1-1--||
|-6-6-6-6-6-2-2-2-2-2-2-2-2-2--||
|-6-6-6-6-6-2-2-2-2-2-2-2-2-2-o||
|-4-4-4-4-4-0-0-0-0-0-0-0-0-0--||


                         Verse
  2.
  G#5       E             B5        C#5
  E E   E   E H           E S S S S E S S S S S S S S
|---------------------||------------------------------|
|---4---2---0---------||o-----------------------------|
|---------------------||--4-4-4-4-4-6-6-6-6-6-6-6-6-6-|
|-4-------------------||--4-4-4-4-4-6-6-6-6-6-6-6-6-6-|
|---------------------||o-2-2-2-2-2-4-4-4-4-4-4-4-4-4-|
|---------------------||------------------------------|
|
| E S S S S E E E E E     E S S S S E S S S S S S S S
|---------------------||------------------------------|
|---------------------||o-----------------------------|
|-----------1-x-x-x-x-||--4-4-4-4-4-6-6-6-6-6-6-6-6-6-|
|-6-6-6-6-6-2-x-x-x-x-||--4-4-4-4-4-6-6-6-6-6-6-6-6-6-|
|-6-6-6-6-6-2-x-x-x-x-||o-2-2-2-2-2-4-4-4-4-4-4-4-4-4-|
|-4-4-4-4-4-0-x-x-x-x-||------------------------------|


  G#5       E
  E S S S S E S S S S S S S S   4x
|-------------------------------||
|------------------------------o||
|-----------1-1-1-1-1-1-1-1-1---||
|-6-6-6-6-6-2-2-2-2-2-2-2-2-2---||
|-6-6-6-6-6-2-2-2-2-2-2-2-2-2--o||
|-4-4-4-4-4-0-0-0-0-0-0-0-0-0---||
|
| E S S S S E S S S S S S S S   4x
|-------------------------------||
|------------------------------o||
|-----------1-1-1-1-1-1-1-1-1---||
|-6-6-6-6-6-2-2-2-2-2-2-2-2-2---||
|-6-6-6-6-6-2-2-2-2-2-2-2-2-2--o||
|-4-4-4-4-4-0-0-0-0-0-0-0-0-0---||


 Pre-Chorus
  Eb/G        G#5               E
  Gtrs I, II
  S S S S S S E S S S S E S S   E S S S S S E S S S S S E
|-----------------------------|---------------------------|
|-----------------------------|---------------------------|
|-----------------------------|-1-1-1-1-1-1-1-1-1-1-1-1-1-|
|-5-5-5-5-5-5-6-6-6-6-6-6-6-6-|-2-2-2-2-2-2-2-2-2-2-2-2-2-|
|-6-6-6-6-6-6-6-6-6-6-6-6-6-6-|-2-2-2-2-2-2-2-2-2-2-2-2-2-|
|-3-3-3-3-3-3-4-4-4-4-4-4-4-4-|-0-0-0-0-0-0-0-0-0-0-0-0-0-|


  Eb/G        G#5     B5      E
  Gtr I
  S S S S S S E H             E S S S S S E S S S S S E
|---------------------------|----------------------------|
|---------------------------|----------------------------|
|---------------------------|-1-1-1-1-1-1-1-1-1-1-1-1-1--|
|-5-5-5-5-5-5-6-------------|-2-2-2-2-2-2-2-2-2-2-2-2-2--|
|-6-6-6-6-6-6-6-------------|-2-2-2-2-2-2-2-2-2-2-2-2-2--|
|-3-3-3-3-3-3-4-------------|-0-0-0-0-0-0-0-0-0-0-0-0-0--|
|
| Gtr II
| S S S S S S Q   S S S S E   E S S S S S E S S S S S E
|---------------------------|----------------------------|
|---------------------------|----------------------------|
|---------------------------|-1-1-1-1-1-1-1-1-1-1-1-1-1--|
|-5-5-5-5-5-5-6---6-6S9-9-9S|=2-2-2-2-2-2-2-2-2-2-2-2-2--|
|-6-6-6-6-6-6-6---6-6S9-9-9S|=2-2-2-2-2-2-2-2-2-2-2-2-2--|
|-3-3-3-3-3-3-4---4-4S7-7-7S|=0-0-0-0-0-0-0-0-0-0-0-0-0--|

[ Tab from: http://www.guitartabs.cc/tabs/f/fall_out_boy/yule_shoot_your_eye_out_tab_ver_3.html ]
                                  1.
    Eb/G        G#5               E
    Gtrs I, II
    S S S S S S E S S S S E S S   E S S S S S E S S S S S E
||------------------------------|----------------------------||
||o-----------------------------|---------------------------o||
||------------------------------|-1-1-1-1-1-1-1-1-1-1-1-1-1--||
||--5-5-5-5-5-5-6-6-6-6-6-6-6-6-|-2-2-2-2-2-2-2-2-2-2-2-2-2--||
||o-6-6-6-6-6-6-6-6-6-6-6-6-6-6-|-2-2-2-2-2-2-2-2-2-2-2-2-2-o||
||--3-3-3-3-3-3-4-4-4-4-4-4-4-4-|-0-0-0-0-0-0-0-0-0-0-0-0-0--||


                 Chorus
  2.
  E     Em        B5          F#/Bb         E5          F#5
  Gtr I
   H     H        S S S S E E S S S S E E   S S S S E E S S S S E E   3x
|-^0----^0----||--------------------------|---------------------------||
|-^0----^0----||o-------------------------|--------------------------o||
|-^1----^0----||----------4-4---------3-3-|---------1-1---------------||
|-^2----^2----||--4-4-4-4-4-4-4-4-4-4-4-4-|---------2-2---------4-4---||
|-^2----^2----||o-2-2-2-2-2-2-1-1-1-1-1-1-|-2-2-2-2-2-2-4-4-4-4-4-4--o||
|-^0----^0----||--------------------------|-0-0-0-0-0-0-2-2-2-2-2-2---||
|
| Gtr II
|  W              E   E   E E E   E   E E   E   E   E E E   E   E E   3x
|-------------||--------------------------|---------------------------||
|-------------||o-----4---2-0-----5---4-0-|-----4---2-0-----5---4-0--o||
|-------------||--------------------------|---------------------------||
|-------------||--4-----------4-----------|-4-----------4-------------||
|-------------||o-------------------------|--------------------------o||
|-------------||--------------------------|---------------------------||


  E           Em
  Gtr I
   W           W
|-^0--------|-^0----|
|-^0--------|-^0----|
|-^1--------|-^0----|
|-^2--------|-^2----|
|-^2--------|-^2----|
|-^0--------|-^0----|


   Interlude
    N.C.
    E   E   E   E     E   E   E   E       E   E   E   E E   E E   E      4x
||--------------------------------------|--------------------------------||
||o-----4---2---0---------5---4---0-----|-----4---2---0-----5-4---0-----o||
||--------------------------------------|--------------------------------||
||--4-----------------4-----------------|-4-------------4----------------||
||o-------------------------------------|-------------------------------o||
||--------------------------------------|--------------------------------||
|
|   Gtr II
|   PM----------------------------------------------------------|
|   S S S S S S S +S  S S S S S S S +S    S S S S S S E S S E S S S +S   4x
||--------------------------------------|--------------------------------||
||o-------------------------------------|-------------------------------o||
||--------------------------------------|--------------------------------||
||----------4-4---------------4-4-------|---------4-4---1-1---2-2--------||
||o-2-2-2-2-----2-(2)-2-2-2-2-----------|-------------------------2-(2)-o||
||--------------------------------0-(0)-|-0-0-0-0-----0-----0------------||


  N.C.
  E   E   E     E     E   E   E     E
|-----------------------------------------|
|-----4---2-----2---------2---------2-----|
|---------------------4-------4-----------|
|-4---------------------------------------|
|-----------------------------------------|
|-----------------------------------------|
|
| PM---------------------------------------
| S S S S S +S  S +S  S S S S S +S  S +S
|-----------------------------------------|
|-----------------------------------------|
|-----------------------------------------|
|---------2-(2)---------------2-(2)-------|
|-----------------------------------------|
|-3-3-3-3-------3-(3)-3-3-3-3-------3-(3)-|


  E   E   E     E     E   E   E     E
|-----------------------------------------|
|-----2---------2---------2---------2-----|
|-4-------4-----------4-------4-----------|
|-----------------------------------------|
|-----------------------------------------|
|-----------------------------------------|
|
|-------------------------------------|
| S S S S S +S  S +S  S S S S S +S  S +S
|-----------------------------------------|
|-----------------------------------------|
|-----------------------------------------|
|---------1-(1)---------------1-(1)-------|
|-----------------------------------------|
|-3-3-3-3-------3-(3)-3-3-3-3-------3-(3)-|


  N.C.                                      (G)
  E   E   E     E     E   E   E     E       E   E   E   E   E   E   Q
|-----------------------------------------|------------------------------|
|-----2---------2---------2---------2-----|-----2-------2-------2--------|
|-4-------4-----------4-------4-----------|-4-------4-------4-------4\---|
|-----------------------------------------|------------------------------|
|-----------------------------------------|------------------------------|
|-----------------------------------------|------------------------------|
|
| PM----------------------------------------------------------------|
| S S S S S +S  S +S  S S S S S +S  S +S    S S S S S S S S S S S S Q
|-----------------------------------------|------------------------------|
|-----------------------------------------|------------------------------|
|-----------------------------------------|------------------------------|
|-----------------------------------------|-----------------5-5-5-5-5\---|
|---------4-(4)---------------4-(4)-------|---------4-4-4-4-4-4-4-4-4\---|
|-3-3-3-3-------3-(3)-3-3-3-3-------3-(3)-|-3-3-3-3-3-3-3-3-3-3-3-3-3\---|


   Out-Chorus
    C5          G/B           F5          G5
    S S S S E E S S S S E E   S S S S E E S S S S E E   3x
||--------------------------|---------------------------||
||o-------------------------|--------------------------o||
||----------5-5---------4-4-|---------------------------||
||--5-5-5-5-5-5-5-5-5-5-5-5-|---------3-3---------5-5---||
||o-3-3-3-3-3-3-2-2-2-2-2-2-|-3-3-3-3-3-3-5-5-5-5-5-5--o||
||--------------------------|-1-1-1-1-1-1-3-3-3-3-3-3---||
|
|   E   E   E E E   E   E E   E   E   E E E   E   E E   3x
||--------------------------|---------------------------||
||o-----5-----------6---5---|-----5-----------6---5----o||
||----------7-5-----------5-|---------7-5-----------5---||
||--5-----------5-----------|-5-----------5-------------||
||o-------------------------|--------------------------o||
||--------------------------|---------------------------||


  F                                 Fm
  S S S S S S S S S S S S S S S S   S S S S S S S S S S S S S S S S
|-1-1-1-1-1-1-1-1-1-1-1-1-1-1-1-1-|-1-1-1-1-1-1-1-1-1-1-1-1-1-1-1-1-|
|-1-1-1-1-1-1-1-1-1-1-1-1-1-1-1-1-|-1-1-1-1-1-1-1-1-1-1-1-1-1-1-1-1-|
|-2-2-2-2-2-2-2-2-2-2-2-2-2-2-2-2-|-1-1-1-1-1-1-1-1-1-1-1-1-1-1-1-1-|
|-3-3-3-3-3-3-3-3-3-3-3-3-3-3-3-3-|-3-3-3-3-3-3-3-3-3-3-3-3-3-3-3-3-|
|-3-3-3-3-3-3-3-3-3-3-3-3-3-3-3-3-|-3-3-3-3-3-3-3-3-3-3-3-3-3-3-3-3-|
|-1-1-1-1-1-1-1-1-1-1-1-1-1-1-1-1-|-1-1-1-1-1-1-1-1-1-1-1-1-1-1-1-1-|
|
| S S S S S S S S S S S S S S S S   S S S S S S S S S S S S S S S S
|---------------------------------|---------------------------------|
|---------------------------------|---------------------------------|
|-2-2-2-2-2-2-2-2-2-2-2-2-2-2-2-2-|-1-1-1-1-1-1-1-1-1-1-1-1-1-1-1-1-|
|-3-3-3-3-3-3-3-3-3-3-3-3-3-3-3-3-|-3-3-3-3-3-3-3-3-3-3-3-3-3-3-3-3-|
|-3-3-3-3-3-3-3-3-3-3-3-3-3-3-3-3-|-3-3-3-3-3-3-3-3-3-3-3-3-3-3-3-3-|
|-1-1-1-1-1-1-1-1-1-1-1-1-1-1-1-1-|-1-1-1-1-1-1-1-1-1-1-1-1-1-1-1-1-|


    C5          G/B           F5          G5
    S S S S E E S S S S E E   S S S S E E S S S S E E   3x
||--------------------------|---------------------------||
||o-------------------------|--------------------------o||
||----------5-5---------4-4-|---------------------------||
||--5-5-5-5-5-5-5-5-5-5-5-5-|---------3-3---------5-5---||
||o-3-3-3-3-3-3-2-2-2-2-2-2-|-3-3-3-3-3-3-5-5-5-5-5-5--o||
||--------------------------|-1-1-1-1-1-1-3-3-3-3-3-3---||
|
|   E   E   E E E   E   E E   E   E   E E E   E   E E   3x
||--------------------------|---------------------------||
||o-----5-----------6---5---|-----5-----------6---5----o||
||----------7-5-----------5-|---------7-5-----------5---||
||--5-----------5-----------|-5-----------5-------------||
||o-------------------------|--------------------------o||
||--------------------------|---------------------------||


  F
  S S S S S S S S S S S S S S S S
|-1-1-1-1-1-1-1-1-1-1-1-1-1-1-1-1-|
|-1-1-1-1-1-1-1-1-1-1-1-1-1-1-1-1-|
|-2-2-2-2-2-2-2-2-2-2-2-2-2-2-2-2-|
|-3-3-3-3-3-3-3-3-3-3-3-3-3-3-3-3-|
|-3-3-3-3-3-3-3-3-3-3-3-3-3-3-3-3-|
|-1-1-1-1-1-1-1-1-1-1-1-1-1-1-1-1-|
|
| S S S S S S S S S S S S S S S S
|---------------------------------|
|---------------------------------|
|-2-2-2-2-2-2-2-2-2-2-2-2-2-2-2-2-|
|-3-3-3-3-3-3-3-3-3-3-3-3-3-3-3-3-|
|-3-3-3-3-3-3-3-3-3-3-3-3-3-3-3-3-|
|-1-1-1-1-1-1-1-1-1-1-1-1-1-1-1-1-|


  Fm                                C
                                     >
  S S S S S S S S S S S S S S S S    W
|-1-1-1-1-1-1-1-1-1-1-1-1-1-1-1-1-|------------------*|
|-1-1-1-1-1-1-1-1-1-1-1-1-1-1-1-1-|-^1---------------*|
|-1-1-1-1-1-1-1-1-1-1-1-1-1-1-1-1-|-^0---------------*|
|-3-3-3-3-3-3-3-3-3-3-3-3-3-3-3-3-|-^2---------------*|
|-3-3-3-3-3-3-3-3-3-3-3-3-3-3-3-3-|-^3---------------*|
|-1-1-1-1-1-1-1-1-1-1-1-1-1-1-1-1-|------------------*|
|
|                                    >
| S S S S S S S S S S S S S S S S    E H.      +E
|---------------------------------|------------------*|
|---------------------------------|--1---------------*|
|-1-1-1-1-1-1-1-1-1-1-1-1-1-1-1-1-|--0---------------*|
|-3-3-3-3-3-3-3-3-3-3-3-3-3-3-3-3-|--2---------------*|
|-3-3-3-3-3-3-3-3-3-3-3-3-3-3-3-3-|--3-3-------(3)---*|
|-1-1-1-1-1-1-1-1-1-1-1-1-1-1-1-1-|------------------*|


Duration Legend
---------------
W - whole; H - half; Q - quarter; E - 8th; S - 16th; T - 32nd; X - 64th; a - acciaccatura
+ - note tied to previous; . - note dotted; .. - note double dotted
Uncapitalized letters represent notes that are staccato (1/2 duration)
Irregular groupings are notated above the duration line
Duration letters will always appear directly above the note/fret number it represents the
duration for.  Duration letters with no fret number below them represent rests.  Multi-
bar rests are notated in the form Wxn, where n is the number of bars to rest for.  Low
melody durations appear below the staff

Tablature Legend
----------------
 h   - hammer-on
 p   - pull-off
 b   - bend
 pb  - pre-bend
 r   - bend release (if no number after the r, then release immediately)
 /\  - slide into or out of (from/to "nowhere")
 s   - legato slide
 S   - shift slide
  - natural harmonic
[n]  - artificial harmonic
n(n) - tapped harmonic
 ~   - vibrato
 tr  - trill
 T   - tap
 TP  - trem. picking
 PM  - palm muting
\n/  - tremolo bar dip; n = amount to dip
 \n  - tremolo bar down
 n/  - tremolo bar up
/n\  - tremolo bar inverted dip
 =   - hold bend; also acts as connecting device for hammers/pulls
 <>  - volume swell (louder/softer)
 x   - on rhythm slash represents muted slash
 o   - on rhythm slash represents single note slash

Misc Legend
-----------
 |  - bar
||  - double bar
||o - repeat start
o|| - repeat end
*|  - double bar (ending)
 :  - bar (freetime)
 $  - Segno
 &  - Coda
Tempo markers -  = BPM(8/16=s8/s16), where s8 = swing 8ths, s16 = swing 16ths
Comments