Fall Out Boy - Xo Chords & Tabs

 

Xo Chords & Tabs

Fall Out Boy Chords & Tabs

Version: 1 Type: Tab 0 ratings
1 star 2 stars 3 stars 4 stars 5 stars
comments

Xo Tab

   
Artist-Fall Out Boy
Album-From Under The Cork Tree
Song-XO
Track-#13
Tabbed By-Mynor Gonzalez (Brynor127@aol.com)
Tuning-Standard

Intro: Guitar 1 (Guitar 2 comes in later)
(0:00) "I comb the crowd..."                    1st "I swear I say..."                 
e|-----------------------------------------------------------------|
B|-----------------------------------------------------------------|
G|-4-4-4-4-4-4-4-4-4-4-4-4-4-4-4-4---------------------------------|
D|-4-4-4-4-4-4-4-4-4-4-4-4-4-4-4-4-5-5-5-5-5-5-5-5-2-2-2-2-2-2-2-2-|
A|-2-2-2-2-2-2-2-2-2-2-2-2-2-2-2-2-5-5-5-5-5-5-5-5-2-2-2-2-2-2-2-2-|
E|---------------------------------3-3-3-3-3-3-3-3-0-0-0-0-0-0-0-0-|
pm * * * * * * * * * * * * * * * * * * * * * * * * * * * * * * * *

Intro cont: Guitar 1
(0:15) 2nd "I swear I say"
e|-------------------------------------------------|
B|-------------------------------------------------|
G|---------------------------------4-4-4-4-4-4-4-4-|
D|-5-5-5-5-5-5-5-5-2-2-2-2-2-2-2-2-4-4-4-4-4-4-4-4-|
A|-5-5-5-5-5-5-5-5-2-2-2-2-2-2-2-2-2-2-2-2-2-2-2-2-|
E|-3-3-3-3-3-3-3-3-0-0-0-0-0-0-0-0-----------------|
pm * * * * * * * * * * * * * * * * * * * * * * * *

Guitar 1
(0:18) "To hands between..."
e|------------------------------------------------------------------------|
B|------------------------------------------------------------------------|
G|-4-4-4-4-4-4-4-4-----------------4-4-4-6-6-6-8-8-8-11-11-11-9-9-9-9-9-9-|
D|-4-4-4-4-4-4-4-4-5-5-5-5-5-5-5-5-4-4-4-6-6-6-8-8-8-11-11-11-9-9-9-9-9-9-|2x
A|-2-2-2-2-2-2-2-2-5-5-5-5-5-5-5-5-2-2-2-4-4-4-6-6-6--9--9--9-7-7-7-7-7-7-|
E|-----------------3-3-3-3-3-3-3-3----------------------------------------|

Guitar 2
e|----------------------------------|------------------------------------|
B|----------------------------------|------------------------------------|
G|-1111111111111111-9-9-9-9-9-9-9-9-|---1111111111111111-9-9-9-9-6-6-6-6-|
D|-x-x-x-x-x-x-x-x--x-x-x-x-x-x-x-x-|3x-x-x-x-x-x-x-x-x--x-x-x-x-x-x-x-x-|
A|-9-9-9-9-9-9-9-9--7-7-7-7-7-7-7-7-|---9-9-9-9-9-9-9-9--7-7-7-7-4-4-4-4-|
E|----------------------------------|------------------------------------|

Chorus: Guitar 1
(0:33) "To the love..."
e|---------------------------------|
B|---------------------------------|
G|-4-4-4-4-4-4-4-4-----------------|
D|-4-4-4-4-4-4-4-4-5-5-5-5-5-5-5-5-|
A|-2-2-2-2-2-2-2-2-5-5-5-5-5-5-5-5-|
E|-----------------3-3-3-3-3-3-3-3-|

Guitar 2
e|-----------------------------------------|
B|-----------------------------------------|
G|1111111111111111-13-13-13-13-13-13-13-13-|
D|-x-x-x-x-x-x-x-x--x--x--x--x--x--x--x--x-|
A|-9-9-9-9-9-9-9-9-11-11-11-11-11-11-11-11-|
E|-----------------------------------------|

Guitar 1 
(0:40) "Of the Bible in the drawer..."
e|-----------------------------------------------------------------|
B|-----------------------------------------------------------------|
G|-4-4-4-4-4-4-4-4-7-7-7-7-7-7-7-7---------------------------------|
D|-4-4-4-4-4-4-4-4-7-7-7-7-7-7-7-7-5-5-5-5-5-5-5-5-2-2-2-2-2-2-2-2-|2x
A|-2-2-2-2-2-2-2-2-5-5-5-5-5-5-5-5-5-5-5-5-5-5-5-5-2-2-2-2-2-2-2-2-|
E|---------------------------------3-3-3-3-3-3-3-3-0-0-0-0-0-0-0-0-|

Guitar 2
e|------------------------------------------------------------------|
B|------------------------------------------------------------------|
G|1111111111111111-1414141414141414-7-7-7-7-7-7-7-7-6-6-6-6-6-6-6-6-|
D|-x-x-x-x-x-x-x-x--x-x-x-x-x-x-x-x-x-x-x-x-x-x-x-x-x-x-x-x-x-x-x-x-|2x
A|-9-9-9-9-9-9-9-9-1212121212121212-5-5-5-5-5-5-5-5-4-4-4-4-4-4-4-4-|
E|------------------------------------------------------------------|

Guitar 1
(0:54) "But I took it anyway"
e|-----------------|
B|-----------------|
G|-4-------4-------|
D|-4-2-2-2-4-2-2-2-|
A|-2-2-2-2-2-2-2-2-|
E|---0-0-0---0-0-0-|
     * * *   * * *

Guitar 1
(0:57) "Put your ear..."
e|-------------------------------------------------|
B|-------------------------------------------------|
G|-4-4-4-4-4-4-4-4---------------------------------|
D|-4-4-4-4-4-4-4-4-5-5-5-5-5-5-5-5-2-2-2-2-2-2-2-2-|
A|-2-2-2-2-2-2-2-2-5-5-5-5-5-5-5-5-2-2-2-2-2-2-2-2-|
E|-----------------3-3-3-3-3-3-3-3-0-0-0-0-0-0-0-0-|

Guitar 2
e|---------------------------------------------------------|
B|---------------------------------------------------------|
G|1111111111111111-14-14-14-14-14-14-14-14-7-7-7-7-7-7-7-7-|
D|-x-x-x-x-x-x-x-x--x--x--x--x--x--x--x--x-x-x-x-x-x-x-x-x-|
A|-9-9-9-9-9-9-9-9-12-12-12-12-12-12-12-12-5-5-5-5-5-5-5-5-|
E|---------------------------------------------------------|

Guitar 1 
(1:02) "But never both"
e|-----------------------------------------------------------------|
B|-----------------------------------------------------------------|
G|-4-4-4-4-4-4-4-4-7-7-7-7-7-7-7-7---------------------------------|
D|-4-4-4-4-4-4-4-4-7-7-7-7-7-7-7-7-5-5-5-5-5-5-5-5-2-2-2-2-2-2-2-2-|
A|-2-2-2-2-2-2-2-2-5-5-5-5-5-5-5-5-5-5-5-5-5-5-5-5-2-2-2-2-2-2-2-2-|
E|---------------------------------3-3-3-3-3-3-3-3-0-0-0-0-0-0-0-0-|

Guitar 2
e|------------------------------------------------------------------|
B|------------------------------------------------------------------|
G|1111111111111111-1414141414141414-7-7-7-7-7-7-7-7-6-6-6-6-6-6-6-6-|
D|-x-x-x-x-x-x-x-x--x-x-x-x-x-x-x-x-x-x-x-x-x-x-x-x-x-x-x-x-x-x-x-x-|
A|-9-9-9-9-9-9-9-9-1212121212121212-5-5-5-5-5-5-5-5-4-4-4-4-4-4-4-4-|
E|------------------------------------------------------------------|

Guitar 1
(1:09) "I hoped you choked..."
e|-----------------------------------------------------------------|
B|-----------------------------------------------------------------|
G|-4-4-4-4-4-4-4-4-4-4-4-4-4-4-4-4---------------------------------|
D|-4-4-4-4-4-4-4-4-4-4-4-4-4-4-4-4-5-5-5-5-5-5-5-5-2-2-2-2-2-2-2-2-|2x
A|-2-2-2-2-2-2-2-2-2-2-2-2-2-2-2-2-5-5-5-5-5-5-5-5-2-2-2-2-2-2-2-2-|
E|---------------------------------3-3-3-3-3-3-3-3-0-0-0-0-0-0-0-0-|
pm * * * * * * * * * * * * * * * * * * * * * * * * * * * * * * * * 

Guitar 2
e|------------------------------------------------------------------|-----|
B|------------------------------------------------------------------|-----|
G|------------------------------------------------------------------|---4-|
D|-9-9-9-9-9-9-9-9-9-9-9-9-9-9-9-9-1212121212121212-1414141414141414|2x-4-|
A|------------------------------------------------------------------|---2-|
E|------------------------------------------------------------------|-----|
[ Tab from: http://www.guitartabs.cc/tabs/f/fall_out_boy/xo_tab.html ]
Guitar 1
(1:27) "To hands between..."
e|------------------------------------------------------------------------|
B|------------------------------------------------------------------------|
G|-4-4-4-4-4-4-4-4-----------------4-4-4-6-6-6-8-8-8-11-11-11-9-9-9-9-9-9-|
D|-4-4-4-4-4-4-4-4-5-5-5-5-5-5-5-5-4-4-4-6-6-6-8-8-8-11-11-11-9-9-9-9-9-9-|2x
A|-2-2-2-2-2-2-2-2-5-5-5-5-5-5-5-5-2-2-2-4-4-4-6-6-6--9--9--9-7-7-7-7-7-7-|
E|-----------------3-3-3-3-3-3-3-3----------------------------------------|

Guitar 2
e|----------------------------------|------------------------------------|
B|----------------------------------|------------------------------------|
G|-1111111111111111-9-9-9-9-9-9-9-9-|---1111111111111111-9-9-9-9-6-6-6-6-|
D|-x-x-x-x-x-x-x-x--x-x-x-x-x-x-x-x-|3x-x-x-x-x-x-x-x-x--x-x-x-x-x-x-x-x-|
A|-9-9-9-9-9-9-9-9--7-7-7-7-7-7-7-7-|---9-9-9-9-9-9-9-9--7-7-7-7-4-4-4-4-|
E|----------------------------------|------------------------------------|

Chorus: Guitar 1
(1:42) "To the love..."
e|---------------------------------|
B|---------------------------------|
G|-4-4-4-4-4-4-4-4-----------------|
D|-4-4-4-4-4-4-4-4-5-5-5-5-5-5-5-5-|
A|-2-2-2-2-2-2-2-2-5-5-5-5-5-5-5-5-|
E|-----------------3-3-3-3-3-3-3-3-|

Guitar 2
e|-----------------------------------------|
B|-----------------------------------------|
G|1111111111111111-13-13-13-13-13-13-13-13-|
D|-x-x-x-x-x-x-x-x--x--x--x--x--x--x--x--x-|
A|-9-9-9-9-9-9-9-9-11-11-11-11-11-11-11-11-|
E|-----------------------------------------|

Guitar 1 
(1:50) "Of the Bible in the drawer..."
e|-----------------------------------------------------------------|
B|-----------------------------------------------------------------|
G|-4-4-4-4-4-4-4-4-7-7-7-7-7-7-7-7---------------------------------|
D|-4-4-4-4-4-4-4-4-7-7-7-7-7-7-7-7-5-5-5-5-5-5-5-5-2-2-2-2-2-2-2-2-|2x
A|-2-2-2-2-2-2-2-2-5-5-5-5-5-5-5-5-5-5-5-5-5-5-5-5-2-2-2-2-2-2-2-2-|
E|---------------------------------3-3-3-3-3-3-3-3-0-0-0-0-0-0-0-0-|

Guitar 2
e|------------------------------------------------------------------|
B|------------------------------------------------------------------|
G|1111111111111111-1414141414141414-7-7-7-7-7-7-7-7-6-6-6-6-6-6-6-6-|
D|-x-x-x-x-x-x-x-x--x-x-x-x-x-x-x-x-x-x-x-x-x-x-x-x-x-x-x-x-x-x-x-x-|2x
A|-9-9-9-9-9-9-9-9-1212121212121212-5-5-5-5-5-5-5-5-4-4-4-4-4-4-4-4-|
E|------------------------------------------------------------------|

Guitar 1
(2:04) "But I took it anyway"
e|-----------------|
B|-----------------|
G|-4-------4-------|
D|-4-2-2-2-4-2-2-2-|
A|-2-2-2-2-2-2-2-2-|
E|---0-0-0---0-0-0-|
     * * *   * * *

Guitar 1
(2:56) "Put your ear..."
e|-------------------------------------------------|
B|-------------------------------------------------|
G|-4-4-4-4-4-4-4-4---------------------------------|
D|-4-4-4-4-4-4-4-4-5-5-5-5-5-5-5-5-2-2-2-2-2-2-2-2-|
A|-2-2-2-2-2-2-2-2-5-5-5-5-5-5-5-5-2-2-2-2-2-2-2-2-|
E|-----------------3-3-3-3-3-3-3-3-0-0-0-0-0-0-0-0-|

Guitar 2
e|---------------------------------------------------------|
B|---------------------------------------------------------|
G|1111111111111111-14-14-14-14-14-14-14-14-7-7-7-7-7-7-7-7-|
D|-x-x-x-x-x-x-x-x--x--x--x--x--x--x--x--x-x-x-x-x-x-x-x-x-|
A|-9-9-9-9-9-9-9-9-12-12-12-12-12-12-12-12-5-5-5-5-5-5-5-5-|
E|---------------------------------------------------------|

Guitar 1 
(2:11) "But never both"
e|-----------------------------------------------------------------|
B|-----------------------------------------------------------------|
G|-4-4-4-4-4-4-4-4-7-7-7-7-7-7-7-7---------------------------------|
D|-4-4-4-4-4-4-4-4-7-7-7-7-7-7-7-7-5-5-5-5-5-5-5-5-2-2-2-2-2-2-2-2-|
A|-2-2-2-2-2-2-2-2-5-5-5-5-5-5-5-5-5-5-5-5-5-5-5-5-2-2-2-2-2-2-2-2-|
E|---------------------------------3-3-3-3-3-3-3-3-0-0-0-0-0-0-0-0-|

Guitar 2
e|------------------------------------------------------------------|
B|------------------------------------------------------------------|
G|1111111111111111-1414141414141414-7-7-7-7-7-7-7-7-6-6-6-6-6-6-6-6-|
D|-x-x-x-x-x-x-x-x--x-x-x-x-x-x-x-x-x-x-x-x-x-x-x-x-x-x-x-x-x-x-x-x-|
A|-9-9-9-9-9-9-9-9-1212121212121212-5-5-5-5-5-5-5-5-4-4-4-4-4-4-4-4-|
E|------------------------------------------------------------------|

Bridge: Guitar 1
(2:19) "To the love.."
e|-----------------------------------------------------------------|
B|-----------------------------------------------------------------|
G|-4-4-4-4-4-4-4-4-7-7-7-7-7-7-7-7---------------------------------|
D|-4-4-4-4-4-4-4-4-7-7-7-7-7-7-7-7-5-5-5-5-5-5-5-5-2-2-2-2-2-2-2-2-|
A|-2-2-2-2-2-2-2-2-5-5-5-5-5-5-5-5-5-5-5-5-5-5-5-5-2-2-2-2-2-2-2-2-|
E|---------------------------------3-3-3-3-3-3-3-3-0-0-0-0-0-0-0-0-|
                                                   * * * * * * * *

Guitar 1
(2:33) "To the love..."
e|-----------------------------------------------------------------|
B|-----------------------------------------------------------------|
G|-4-4-4-4-4-4-4-4-7-7-7-7-7-7-7-7---------------------------------|
D|-4-4-4-4-4-4-4-4-7-7-7-7-7-7-7-7-5-5-5-5-5-5-5-5-2-2-2-2-2-2-2-2-|2x
A|-2-2-2-2-2-2-2-2-5-5-5-5-5-5-5-5-5-5-5-5-5-5-5-5-2-2-2-2-2-2-2-2-|
E|---------------------------------3-3-3-3-3-3-3-3-0-0-0-0-0-0-0-0-|

Guitar 2
e|------------------------------------------------------------------|
B|------------------------------------------------------------------|
G|1111111111111111-1414141414141414-7-7-7-7-7-7-7-7-6-6-6-6-6-6-6-6-|
D|-x-x-x-x-x-x-x-x--x-x-x-x-x-x-x-x-x-x-x-x-x-x-x-x-x-x-x-x-x-x-x-x-|2x
A|-9-9-9-9-9-9-9-9-1212121212121212-5-5-5-5-5-5-5-5-4-4-4-4-4-4-4-4-|
E|------------------------------------------------------------------|

Guitar 1
(3:02) "To the love.."
e|---------------------------------|
B|---------------------------------|
G|-4-4-4-4-4-4-4-4-----------------|
D|-4-4-4-4-4-4-4-4-5-5-5-5-5-5-5-5-|3x
A|-2-2-2-2-2-2-2-2-5-5-5-5-5-5-5-5-|
E|-----------------3-3-3-3-3-3-3-3-|

Guitar 2
e|-----------------------------------------|
B|-----------------------------------------|
G|1111111111111111-13-13-13-13-13-13-13-13-|
D|-x-x-x-x-x-x-x-x--x--x--x--x--x--x--x--x-|3x
A|-9-9-9-9-9-9-9-9-11-11-11-11-11-11-11-11-|
E|-----------------------------------------|

Guitar 1
(3:24) "what did it ever do for me I say"
e|---|
B|---|
G|---|
D|-5-|
A|-5-|
E|-3-|

Alright I know it's long and stuff but it's the only one around. Appreciate it. Thanks.
Major-Mynor
Comments