Fall Out Boy - The Pros And Cons Of Breathing Chords & Tabs

 

The Pros And Cons Of Breathing Chords & Tabs

Fall Out Boy Chords & Tabs

Version: 1 Type: Tab 0 ratings
1 star 2 stars 3 stars 4 stars 5 stars
comments

The Pros And Cons Of Breathing Tab

   
Fall Out Boy
The Pros and Cons of Breathing
Tabbed by Kellen

x=quick stop
~-let ring

Standard Tuning

Intro
E|---------------------------------
B|---------------------------------
G|-------4~----------------4~------
D|-6~-2~-4~-4~-2-4---6~-2~-4~-4~-2x
A|-6~-2~-2~-4~-2-4---6~-2~-2~-4~-2x
E|-4~-0~----2~-0-2---4~-0~----2~-0x

Verse part 1  x3
E|-----------------------------
B|------------------------------
G|------------------------------
D|-6666-2-4-22-44-6666-2-4-22-44
A|-6666-2-4-22-44-6666-2-4-22-44
E|-4444-0-2-00-22-4444-0-2-00-22

Verse part 2  x1
E|-----------------------------------------
B|-----------------------------------------
G|-----------------------------------------
D|-6666-2-4-22-44-88888888-2222222222222222
A|-6666-2-4-22-44-88888888-2222222222222222
E|-4444-0-2-00-22-66666666-0000000000000000

Chorus  x2
E|-----------------------------------------------------------------
B|-----------------------------------------------------------------
G|-----------------------------------------------------------------
D|-666x-22222222-44444444-2222-4444--666x-88888888-2222222222222222
A|-666x-22222222-44444444-2222-4444--666x-88888888-2222222222222222
E|-444x-00000000-22222222-0000-2222--444x-66666666-0000000000000000
[ Tab from: http://www.guitartabs.cc/tabs/f/fall_out_boy/the_pros_and_cons_of_breathing_tab.html ]
Post Chorus  "stood on my roof..."
E|------------------------------------------------------------------------------
B|------------------------------------------------------------------------------
G|------------------44444444-6666-8888------------------44-444-666-888----------
D|-2222222222222222-44444444-6666-8888-2222222222222222-44-444-666-888-22222222x
A|-2222222222222222-22222222-4444-6666-2222222222222222-22-222-444-666-22222222x
E|-0000000000000000--------------------0000000000000000----------------00000000x

Post Chorus continued
E|----------------------
B|----------------------
G|-44444444-6666-8888---
D|-44444444-6666-8888-2~
A|-22222222-4444-6666-2~
E|--------------------0~

Intro riff again
E|---------------------------------
B|---------------------------------
G|-------4~----------------4~------
D|-6~-2~-4~-4~-2-4---6~-2~-4~-4~-2x
A|-6~-2~-2~-4~-2-4---6~-2~-2~-4~-2x
E|-4~-0~----2~-0-2---4~-0~----2~-0x


Verse part 1 only once, followed by Verse part 2

Chorus

Post Chorus

Then this little Pre Bridge riff
E|---------
B|---------
G|---------
D|-6~-6~-6x
A|-6~-6~-6x
E|-4~-4~-4x

Bridge  x4  "I wish that I was as invisible as you make me feel"
E|------------------------------------
B|------------------------------------
G|------------------------------------
D|-66666666-88888888-99999999-22222222
A|-66666666-88888888-99999999-22222222
E|-44444444-66666666-77777777-00000000

Post Bridge
E|-----------
B|-----------
G|-----------
D|-666x--666x
A|-666x--666x
E|-444x--444x

Last Chorus  x2
E|-------------------------------------------------------------------------
B|-------------------------------------------------------------------------
G|-------------------------------------------------------------------------
D|-66666666-22222222-44444444-2222-4444-66666666-88888888-22222222-44444444
A|-66666666-22222222-44444444-2222-4444-66666666-88888888-22222222-44444444
E|-44444444-00000000-22222222-0000-2222-44444444-66666666-00000000-22222222

End on
E|---
B|---
G|---
D|-4~
A|-4~
E|-2~

Email me at kgator86@msn.com with any questions, comments or corrections
Comments