Fall Out Boy - The Patron Saint Of Liars And Fakes Chords & Tabs

 

The Patron Saint Of Liars And Fakes Chords & Tabs

Fall Out Boy Chords & Tabs

Version: 1 Type: Tab 2 ratings
1 star 2 stars 3 stars 4 stars 5 stars
comments

The Patron Saint Of Liars And Fakes Tab

   
Song: The Patron Saint Of Liars And Fakes
Band: Fall Out Boy
Album: Take This To Your Grave

Intro 

Guitar 1
E-----------------------------------------|
B-----------------------------------------|
G----------------------------5----------5-|
D-33-33322233553322----3-2h3------3-2h3---| 4x
A-33-33333333333333-----------------------|
D-33----------------33---------33---------|
pm..  .. .. . . .   ..         ..

Guitar 2
E-1---1---3---3-|
B---1---1---1---|
G---------------|
D---------------| 12x (comes in on guitar 1's 2nd time)
A---------------|
D---------------|

Preverse riff (both guitars)
E----------------------|
B------------5/6666666-|
G----------------------|
D-33-33----------------|
A-33-33----------------|
D-33-33----------------|

Verse

Guitar 1
E--------------------------------------------------------------------|
B--------------------------------------------------------------------|
G-------------------22222222-33333333-------------------333333333333-|
D-33333333-00000000-22222222-33333333-33333333-0/333333-333333333333-| 2x
A-33333333-00000000-00000000-11111111-33333333-0/333333-111111111111-|
D-33333333-00000000-------------------33333333-0/333333--------------|

Guitar 2
E--------------------------------------------------------------------|
B--------------------------------------------------------------------|
G-55555555-4/555555-4/555555-77777777-55555555-4/555555-101010101010-|
D-xxxxxxxx-x/xxxxxx-x/xxxxxx-xxxxxxxx-xxxxxxxx-x/xxxxxx-xxxxxxxxxxxx-| 2x
A-33333333-2/333333-2/333333-55555555-33333333-2/333333--8-8-8-8-8-8-|
D--------------------------------------------------------------------|

Chorus
[ Tab from: http://www.guitartabs.cc/tabs/f/fall_out_boy/the_patron_saint_of_liars_and_fakes_tab.html ]
Guitar 1
E----------------------------------------------------------------------|
B----------------------------------------------------------------------|
G-33333333----------77777777-55555555---33333333----------555555555555-|
D-33333333-33333333-77777777-55555555---33333333-33333333-555555555555-| 2x
A-11111111-33333333-55555555-33333333---11111111-33333333-333333333333-|
D----------33333333------------------------------33333333--------------|
                                                       pm...........

Guitar 2
E----------------------------------------------------------------------|
B----------------------------------------------------------------------|
G-10101010-9/101010-14141414-1212/14/12-10101010-9/101010-121212-14/12-|
D-xxxxxxxx-x/xxxxxx-xxxxxxxx-xxxx/xx/xx-xxxxxxxx-x/xxxxxx-xxxxxx-xx/xx-| 2x
A--8-8-8-8-7/-8-8-8-12121212-1010/12/10--8-8-8-8-7/-8-8-8-101010-12/10-|
D----------------------------------------------------------------------|

Intro
Verse
Chorus 3x ( on 3rd time play the chorus with a certain rhythmn. If you listen to the cd you'll figure it out.)

last chorus: guitar 1 plays same chords palm-muted
             while guitar 2 plays:

E-----------------|
B-----6---6-----6-|
G-5-5---5---5-5---|
D-----------------| 8x
A-----------------| 
D-----------------|

Bridge

Guitar 1
E-----------------------|
B-----------------------|
G-----------------------|
D-000---000---000---000-|
A-000---000---000---000-|
D-000---000---000---000-|

Guitar 2
E-5-----6-5---|
B---6-------6-|
G-----5-------|
D-------------|
A-------------|
D-------------|

Intro 4x

End on
E---|
B---|
G---|
D-0-|
A-0-|
D-0-|
Comments