Fall Out Boy - The Patron Saint Of Liars And Fakes Chords & Tabs

 

The Patron Saint Of Liars And Fakes Chords & Tabs

Fall Out Boy Chords & Tabs

Version: 1 Type: Bass Tab

The Patron Saint Of Liars And Fakes Bass Tab

   
The Patron Saint of lairs and fakes- bass tab

Drop D

Bass comes in after one bar of the guitar line

Intro
G|------------------------------------------|
D|------------------------------------------| x3
A|------------------------------------------|
D|0-0-0--0-0-8-8-8-8-3-3-3-3-3-3-2-2-2-2-2-2|

G|-------|
D|-------|
A|-------|
D|0-0-0-0|

Verse 1

"I'm holding..."
G|-----------------------------------------------|
D|-----------------------------------------------|
A|-----------------------------------------------|
D|3-3-3-3-3-3-0-0-0-0-0-0-7-7-7-7-7-7-8-8-8-8-8-8|

"Too every..."
G|-----------------------------------------------|
D|-----------------------------------------------|
A|-----------------------------------------------|
D|2-2-2-2-2-2-3-3-3-3-3-3-8-8-8-8-8-8-8-8-8-8-8-8|

"I pulled..."
G|-----------------------------------------------|
D|-----------------------------------------------|
A|-----------------------------------------------|
D|3-3-3-3-3-3-0-0-0-0-0-0-7-7-7-7-7-7-8-8-8-8-8-8|

"You through..."
G|-----------------------------------------------|
D|-----------------------------------------------|
A|-----------------------------------------------|
D|2-2-2-2-2-2-3-3-3-3-3-3-8-8-8-8-8-8-8-8-8-8-8-8|

Chorus

"And when..."
G|-----------------------------------------------------|
D|-----------------------------------------------------|
A|------------8-8-8-8-8-8------------------------------|
D|8-8-8-8-8-8-------------0-0-0-0-0-0-10-10-10-10-10-10|

"Me your..."
G|-----------------------------------------------------------|
D|-----------------------------------------------------------|
A|------------8-8-8-8-8-8------------------------------------|
D|8-8-8-8-8-8-------------10-10-10-10-10-10-10-10-10-10-10-10|

"And when..."
G|-----------------------------------------------------|
D|-----------------------------------------------------|
A|------------8-8-8-8-8-8------------------------------|
D|8-8-8-8-8-8-------------0-0-0-0-0-0-10-10-10-10-10-10|

"Me your..."
G|-----------------------------------------------------------|
D|-----------------------------------------------------------|
A|------------8-8-8-8-8-8------------------------------------|
D|8-8-8-8-8-8-------------10-10-10-10-10-10-10-10-10-10-10-10|

Pre-Verse
G|------------------------------------------|
D|------------------------------------------|
A|------------------------------------------|
D|0-0-0--0-0-8-8-8-8-3-3-3-3-3-3-2-2-2-2-2-2|

G|--------------------------------|
D|--------------------------------|
A|--------------------------------|
D|0-0-0--0-0-8-8-8-8-3-3-3-3-3-3-2|


Verse 2

"I'm all..."
G|-----------------------------------------------|
D|-----------------------------------------------|
A|-----------------------------------------------|
D|3-3-3-3-3-3-0-0-0-0-0-0-7-7-7-7-7-7-8-8-8-8-8-8|

"Too hear..."
G|-----------------------------------------------|
D|-----------------------------------------------|
A|-----------------------------------------------|
D|2-2-2-2-2-2-3-3-3-3-3-3-8-8-8-8-8-8-8-8-8-8-8-8|

"Too look..."
G|-----------------------------------------------|
D|-----------------------------------------------|
A|-----------------------------------------------|
D|3-3-3-3-3-3-0-0-0-0-0-0-7-7-7-7-7-7-8-8-8-8-8-8|
[ Tab from: http://www.guitartabs.cc/tabs/f/fall_out_boy/the_patron_saint_of_liars_and_fakes_btab.html ]
"But I..."
G|-----------------------------------------------|
D|-----------------------------------------------|
A|-----------------------------------------------|
D|2-2-2-2-2-2-3-3-3-3-3-3-8-8-8-8-8-8-8-8-8-8-8-8|

Chorus

"And when..."
G|-----------------------------------------------------|
D|-----------------------------------------------------|
A|------------8-8-8-8-8-8------------------------------|
D|8-8-8-8-8-8-------------0-0-0-0-0-0-10-10-10-10-10-10|

"Me your..."
G|-----------------------------------------------------------|
D|-----------------------------------------------------------|
A|------------8-8-8-8-8-8------------------------------------|
D|8-8-8-8-8-8-------------10-10-10-10-10-10-10-10-10-10-10-10|

"And when..."
G|-----------------------------------------------------|
D|-----------------------------------------------------|
A|------------8-8-8-8-8-8------------------------------|
D|8-8-8-8-8-8-------------0-0-0-0-0-0-10-10-10-10-10-10|

"Me your..."
G|-----------------------------------------------------------|
D|-----------------------------------------------------------|
A|------------8-8-8-8-8-8------------------------------------|
D|8-8-8-8-8-8-------------10-10-10-10-10-10-10-10-10-10-10-10|

"And when..."
G|-----------------------------------------------------|
D|-----------------------------------------------------|
A|------------8-8-8-8-8-8------------------------------|
D|8-8-8-8-8-8-------------0-0-0-0-0-0-10-10-10-10-10-10|

"Me your..."
G|-----------------------------------------------------------|
D|-----------------------------------------------------------|
A|------------8-8-8-8-8-8------------------------------------|
D|8-8-8-8-8-8-------------10-10-10-10-10-10-10-10-10-10-10-10|

"Take this..."
G|-----------------------------------------------------|
D|-----------------------------------------------------|
A|------------8-8-8-8-8-8------------------------------|
D|8-8-8-8-8-8-------------0-0-0-0-0-0-10-10-10-10-10-10|

"I'll take..."
G|-----------------------------------------------------------|
D|-----------------------------------------------------------|
A|------------8-8-8-8-8-8------------------------------------|
D|8-8-8-8-8-8-------------10-10-10-10-10-10-10-10-10-10-10-10|

Bridge
G|-----------------------|
D|-----------------------| x4
A|------8-8-8-------7-7-7|
D|0-0-0-------3-3-3------|

Outro
"and when it all goes to hell!"
G|------------------------------------------|
D|------------------------------------------| x3
A|------------------------------------------|
D|0-0-0--0-0-8-8-8-8-3-3-3-3-3-3-2-2-2-2-2-2|

"And when its all goes!"
G|------------------------------------------|
D|------------------------------------------|
A|------------------------------------------|
D|0-0-0--0-0-8-8-8-8-3-3-3-3-3-3-2-2-2-2-2-2|

G|---------------|
D|---------------|
A|---------------|
D|0-0-0-0---8-8-0|

Lyrics

I'm holding out and I'm holding on 
to every letter and every song.
I pulled myself out of the day we ever had to meet.
Are you through with me? 

So..

And when it all goes to hell, 
will you be able to tell 
me you're sorry with a straight face.
[x2]

Let's Go!

I'm all ears and I'm all scars 
to hear you tell me "Boy's like you, you try too hard 
to look not quite as desperate". I'm hanging on. 
But I still know the way to make your makeup run.

So..

And when it all goes to hell, 
will you be able to tell 
me you're sorry with a straight face.
[x3]

And when it all goes to hell, (Take this to your grave)
will you be able to tell 
me you're sorry with a straight face. (I'll take it to mine)

And when it all goes to hell [x3]
And when it all goes.