Fall Out Boy - Tell That Mick He Just Made My List Of Things To Do Today Chords & Tabs

 

Tell That Mick He Just Made My List Of Things To Do Today Chords & Tabs

Fall Out Boy Chords & Tabs

Version: 1 Type: Tab 0 ratings
1 star 2 stars 3 stars 4 stars 5 stars
comments

Tell That Mick He Just Made My List Of Things To Do Today Tab

   
Fall Out Boy
Tell That Mick He Just Made My List of Things to do Today
Tabbed by Kellen

x=quick stop
/=slide
~=let ring

Standard Tuning

Intro
E|-----------------
B|-----------------
G|-----------------
D|-2222222222222222
A|-2222222222222222
E|-0000000000000000

Then

E|-4444-5555-0000-2222-0000-2222-0000-2222
B|-5555-5555-4444-4444-2222-2222-2222-2222
G|----------------------------------------
D|----------------------------------------
A|----------------------------------------
E|----------------------------------------

One guitar does that twice, then at second guitar comes in with a pickslide then this

E|-----------------------------------
B|-----------------------------------
G|------------------44444444-66666666
D|-22~--22-22222222-44444444-66666666
A|-22~--22-22222222-22222222-44444444
E|-00~--00-00000000------------------
           |       palm  mute        |

Verse  x4  "light that smoke..."
E|-------------------------------------
B|-------------------------------------
G|----------66666666-------------------
D|-22222222-66666666-66666666-7777777/9
A|-22222222-44444444-66666666-7777777/9
E|-00000000----------44444444-5555555/7

Next part  x2  "I hope you choke..."  
E|----------------------------------------
B|----------------------------------------
G|-----------6666-6666--------------------
D|-2222-2222-6666-6666-7777-7777-7777-7777
A|-2222-2222-4444-4444-7777-7777-7777-7777
E|-0000-0000-----------5555-5555-5555-5555

Pre chorus  x2  "lets play this game..."
E|-------------------------------------------------------------------
B|-------------------------------------------------------------------
G|-2222222222222222-66666666-44444444-2222222222222222-666-444-6/4444
D|-2222222222222222-66666666-44444444-2222222222222222-666-444-6/4444
A|-0000000000000000-44444444-22222222-0000000000000000-444-222-4/2222
E|-------------------------------------------------------------------
[ Tab from: http://www.guitartabs.cc/tabs/f/fall_out_boy/tell_that_mick_he_just_made_my_list_of_things_to_do_today_tab.html ]
Chorus  x2  "so bury me in memory..."
E|--- 0----0----0----------
B|----0----0----0----------
G|------66-----------------
D|-22---66---66---77-7/9999
A|-22---44---66---77-7/9999
E|-00--------44---55-5/7777

Play this two more times
E|-4444-5555-0000-2222-0000-2222-0000-2222
B|-5555-5555-4444-4444-2222-2222-2222-2222
G|----------------------------------------
D|----------------------------------------
A|----------------------------------------
E|----------------------------------------

No guitar until  "breaking hearts..." then you play this again with the same
timing as the first time you played it



E|-----------------------------------
B|-----------------------------------
G|------------------44444444-66666666
D|-22~--22-22222222-44444444-66666666
A|-22~--22-22222222-22222222-44444444
E|-00~--00-00000000------------------
           |       palm  mute        |

Pre Chorus

Chorus

Now he sings the chorus again, but he plays the verse(x2) over it

One guitar does this

E|----------
B|----------
G|----------
D|-2~---222~
A|-2~---222~
E|-0~---000~

And lets the last chord ring while the other does this once

E|-4444-5555-0000-2222-0000-2222-0000-2222
B|-5555-5555-4444-4444-2222-2222-2222-2222
G|----------------------------------------
D|----------------------------------------
A|----------------------------------------
E|----------------------------------------

Then does it again but stops abruptly

E|-4444-5555-0000-2222-0000-2222-0000-2x
B|-5555-5555-4444-4444-2222-2222-2222-2x
G|--------------------------------------
D|--------------------------------------
A|--------------------------------------
E|--------------------------------------

Then do this 4 more times

E|-4444-5555-0000-2222-0000-2222-0000-2222
B|-5555-5555-4444-4444-2222-2222-2222-2222
G|----------------------------------------
D|----------------------------------------
A|----------------------------------------
E|----------------------------------------

And let this chord ring as the last vocals are said

E|---
B|---
G|---
D|-2~
A|-2~
E|-0~

Corrections or comments, email me at kgator86@msn.com
This is prob my fav Fall Out Boy song
Comments