Fall Out Boy - Tell That Mick He Just Made My List Of Things To Do Today Chords & Tabs

 

Tell That Mick He Just Made My List Of Things To Do Today Chords & Tabs

Fall Out Boy Chords & Tabs

Version: 1 Type: Bass Tab 0 ratings
1 star 2 stars 3 stars 4 stars 5 stars
comments

Tell That Mick He Just Made My List Of Things To Do Today Bass Tab

   
Song - "Tell That Mick He Just Made My List of Things to Do Today"
Artist - Fall Out Boy
Album - Take This To Your Grave
Tabbed by - Daniel Cummins - dan_the_man_no1@hotmail.com

INTRO (0.03)
G|-------------------------------------------------------------------|
D|-------------------------------------------------------------------|
A|-------------------------------------------------------------------|
E|-00000000000000000---------------00~~~~~~~~~~~~~~~00000000/99999999|

VERSE
G|----------------------------------|
D|----------------------------------|
A|---------44444444-----------------|
E|-00000000--------4444444455555777-|  X2
(3rd time)
G|----------------------------------|
D|----------------------------------|
A|---------44444444-----------------|
E|-00000000--------444444445-55-577-|
(4th time)
G|----------------------------------|
D|----------------------------------|
A|---------44444444-----------------|
E|-00000000--------4444444455555777-|

PRE CHORUS 
G|----------------------------------|
D|----------------------------------|
A|----------------------------------|
E|-0--------------------------------|

G|------------------------------------------------------------------|
D|------------------------------------------------------------------|
A|-----------------4~~~~~~~~~~~~~~~---------------------------------|
E|-0~~~~~~~~~~~~~~~----------------5~~~~~~~~~~~~~~~4~~~~~~~~~~~~~~~-|

CHORUS
G|----------------------------------|
D|----------------------------------|
A|-----------------44444444---------|
E|-5555555555555555--------77777797-|

G|----------------------------------|
D|----------------------------------|
A|-----------------4444-------------|
E|-5555555555555555------7777--7797-|

G|----------------------------------|
D|----------------------------------|
A|-----------------44444444---------|
E|-5555555555555555--------77777797-|

G|----------------------------------|
D|----------------------------------|
A|-----------------4444-------------|
E|-5555555555555555------7777--7797-|
[ Tab from: http://www.guitartabs.cc/tabs/f/fall_out_boy/tell_that_mick_he_just_made_my_list_of_things_to_do_today_btab.html ]
PRE VERSE
G|----------------------------------|
D|----------------------------------|
A|-------44-------------------------|
E|-00----------44----55-55777-------| X2

G|----------------------------------|
D|----------------------------------|
A|---------44444444-----------------|
E|-00000000--------4444444455555777-| 

G|----------------------------------|
D|----------------------------------|
A|---------44444444-----------------|
E|-00000000--------444444445-55-577-|

VERSE
G|----------------------------------|
D|----------------------------------|
A|---------44444444-----------------|
E|-00000000--------4444444455555777-| X4

CHORUS
G|----------------------------------|
D|----------------------------------|
A|-----------------44444444---------|
E|-5555555555555555--------77777797-|

G|----------------------------------|
D|----------------------------------|
A|-----------------4444-------------|
E|-5555555555555555------7777--7797-|

G|----------------------------------|
D|----------------------------------|
A|-----------------44444444---------|
E|-5555555555555555--------77777797-|

G|----------------------------------|
D|----------------------------------|
A|-----------------4444-------------|
E|-5555555555555555------7777--7797-|

BRIDGE
G|----------------------------------|
D|----------------------------------|
A|-------44-------------------------|
E|-00----------44----55-55777-------| X2

G|----------------------------------|
D|----------------------------------|
A|---------44444444-----------------|
E|-00000000--------4444444455555777-| 

G|----------------------------------|
D|----------------------------------|
A|---------44444444-----------------|
E|-00000000--------4444444455555577-|

OUTRO
G|----------------------------------|
D|----------------------------------|
A|----------------------------------|
E|-0~~~~~~~~~~~~~~~~~~~~~~~~~~~~~~~~| X2

G|----------------------------------|
D|----------------------------------|
A|---------44444444-----------------|
E|-00000000--------4444444455555577-| X4

thats is. standard tuning, very easy.
please feed my back.
Dan.
Comments