Fall Out Boy - Sugar, We're Going Down Chords & Tabs

 

Sugar, We're Going Down Chords & Tabs

Fall Out Boy Chords & Tabs

Version: 4 Type: Tab 0 ratings
1 star 2 stars 3 stars 4 stars 5 stars
comments

Sugar, We're Going Down Tab

Fall Out Boy
Sugar, We're Going Down

very good song... and pretty simple to play. i know there's a great tab for this
already but i know that this one is 100% correct. 

drop d tuning (EBGDAD).

key:


----------------------------------------------------------------------------
Guitar 1

intro

E|--------------------------------------------|
B|--------------------------------------------|
G|--------------------------------------------|
D|--xxxx-00000000-00000000-55555555-55555555--|
A|--xxxx-00000000-00000000-55555555-55555555--| (x1)
D|--xxxx-00000000-00000000-55555555-55555555--|

E|----------------------------------------|
B|----------------------------------------|
G|----------------------------------------|
D|--99999999-99999999-55555555-5555-xxxx--|
A|--99999999-99999999-55555555-5555-xxxx--| (x1)
D|--99999999-99999999-55555555-5555-xxxx--|

E|------------------------------------------------------------|
B|------------------------------------------------------------|
G|------777-----777-----777-----777-----111111-----111111-----|
D|--000-xxx-000-xxx-555-xxx-555-xxx-999--x-x-x-999--x-x-x-5~--|
A|--000-555-000-555-555-555-555-555-999--9-9-9-999--9-9-9-5~--| (x1)
D|--000-----000-----555-----555-----999--------999--------5~--|

verse

E|---------------------------------------------------|
B|---------------------------------------------------|
G|---------------------------------------------------|
D|-----7-7h9p7-----7h9p7--------7-7h9p7-----7h9p7----|
A|--55---------7h9-------7---55---------7h9-------7--| (x2)
D|---------------------------------------------------|
    ^^                       ^^

pre-chorus

E|---------------------------------------|
B|---------------------------------------|
G|---------------------------------------|
D|--444444-5555555555-777777-9999999999--|
A|--444444-5555555555-777777-9999999999--| (x1)
D|--444444-5555555555-777777-9999999999--|
    ^^^^^^ ^^^^^^^^^^ ^^^^^^ ^^^^^^^^^^

E|----------------------------------------------|
B|----------------------------------------------|
G|----------------------------------------------|
D|--101010101010-9999999999-55555555-5555-xxxx--|
A|--101010101010-9999999999-55555555-5555-xxxx--| (x1)
D|--101010101010-9999999999-55555555-5555-xxxx--|
     ^ ^ ^ ^ ^ ^ ^^^^^^^^^^ ^^^^^^^^

chorus

E|---------------------------------------|
B|---------------------------------------|
G|---------------------------------------|
D|--00000000-00000000-55555555-55555555--|
A|--00000000-00000000-55555555-55555555--| (x1)
D|--00000000-00000000-55555555-55555555--|

E|----------------------------------------|
B|----------------------------------------|
G|----------------------------------------|
D|--99999999-99999999-55555555-5555-xxxx--|
A|--99999999-99999999-55555555-5555-xxxx--| (x1)
D|--99999999-99999999-55555555-5555-xxxx--|

E|-----------------------------------|
B|-----------------------------------|
G|------777-----777-----777-----777--|
D|--000-xxx-000-xxx-555-xxx-555-xxx--|
A|--000-555-000-555-555-555-555-555--| (x1)
D|--000-----000-----555-----555------|

E|-----------------------------------------|
B|-----------------------------------------|
G|------111111-----111111-----777-----777--|
D|--999--x-x-x-999--x-x-x-555-xxx-555-xxx--|
A|--999--9-9-9-999--9-9-9-555-555-555-555--| (x1)
D|--999--------999--------555-----555------|

post-chorus

E|--------------------------------------------|
B|--------------------------------------------|
G|--------------------------------------------|
D|--4444444-44-5555555-7777777-999-999-99999--|
A|--4444444-44-5555555-7777777-999-999-99999--| (x1)
D|--4444444-44-5555555-7777777-999-999-99999--|
    ^^^^ ^^ ^^ ^^^^ ^  ^^^^ ^^ ^^^ ^^^ ^^ ^

E|-------------------------------------------------|
B|-------------------------------------------------|
G|------------------------------------77-77777777--|
D|--10101010101010-1010-9999999-55555555-55555555--|
A|--10101010101010-1010-9999999-55555555-55555555--| (x1)
D|--10101010101010-1010-9999999-55555555-55555555--|
     ^ ^ ^ ^   ^ ^  ^ ^ ^^^^ ^ 

verse

E|---------------------------------------|
B|---------------------------------------|
G|---------------------------------------|
D|--00000000-55555555-99999999-55555555--|
A|--00000000-55555555-99999999-55555555--| (x1)
D|--00000000-55555555-99999999-55555555--|
    ^^^^^^^^ ^^^^^^^^ ^^^^^^^^ ^^^^^^^^

E|---------------------------------------|
B|---------------------------------------|
G|---------------------------------------|
D|--00000000-55555555-99999999-55555555--|
A|--00000000-55555555-99999999-55555555--| (x1)
D|--00000000-55555555-99999999-55555555--|
    ^^^^^^^^ ^^^^^^^^ ^^^^^^^^ ^^^

E|-------------------|
B|--------7-7-7-7-7--|
G|--77-77-7-7-7-7-7--|
D|--xx-xx-x-x-x-x-x--|
A|--55-55-5-7-7-7-7--| (x4)
D|-------------------|

pre-chorus

E|---------------------------------------|
B|---------------------------------------|
G|---------------------------------------|
D|--444444-5555555555-777777-9999999999--|
A|--444444-5555555555-777777-9999999999--| (x1)
D|--444444-5555555555-777777-9999999999--|
    ^^^^^^ ^^^^^^^^^^ ^^^^^^ ^^^^^^^^^^

E|-------------------------------------------|
B|-------------------------------------------|
G|-------------------------------------------|
D|--101010101010-9999999999-55555555-5555-5--|
A|--101010101010-9999999999-55555555-5555-5--| (x1)
D|--101010101010-9999999999-55555555-5555-5--|
     ^ ^ ^ ^ ^ ^ ^^^^^^^^^^ ^^^^^^^^

chorus

E|---------------------------------------|
B|---------------------------------------|
G|---------------------------------------|
D|--00000000-00000000-55555555-55555555--|
A|--00000000-00000000-55555555-55555555--| (x1)
D|--00000000-00000000-55555555-55555555--|

E|----------------------------------------|
B|----------------------------------------|
G|----------------------------------------|
D|--99999999-99999999-55555555-5555-xxxx--|
A|--99999999-99999999-55555555-5555-xxxx--| (x1)
D|--99999999-99999999-55555555-5555-xxxx--|

E|-----------------------------------|
B|-----------------------------------|
G|------777-----777-----777-----777--|
D|--000-xxx-000-xxx-555-xxx-555-xxx--|
A|--000-555-000-555-555-555-555-555--| (x1)
D|--000-----000-----555-----555------|

E|-----------------------------------------|
B|-----------------------------------------|
G|------111111-----111111-----777-----777--|
D|--999--x-x-x-999--x-x-x-555-xxx-555-xxx--|
A|--999--9-9-9-999--9-9-9-555-555-555-555--| (x1)
D|--999--------999--------555-----555------|

E|---------------------------------------|
B|---------------------------------------|
G|---------------------------------------|
D|--2--0-0-0--0~----5~----0~----5~--5-5--|
A|--2--0-0-0--0~----5~----0~----5~--5-5--| (x1)
D|--2--0-0-0--0~----5~----0~----5~--5-5--|
       ^ ^ ^

chorus (different)

E|------------------------------------------------------|
B|------------------------------------------------------|
G|------------------------------------------------------|
D|--00000-00000-55555-55555-99999-99999-55555-55555555--|
A|--00000-00000-55555-55555-99999-99999-55555-55555555--| (x1)
D|--00000-00000-55555-55555-99999-99999-55555-55555555--|
    ^^^^^ ^^^^^ ^^^^^ ^^^^^ ^^^^^ ^^^^^ ^^^^^ ^^^^

E|---------------------------------------|
B|---------------------------------------|
G|---------------------------------------|
D|--00000000-00000000-55555555-55555555--|
A|--00000000-00000000-55555555-55555555--| (x1)
D|--00000000-00000000-55555555-55555555--|

E|-----------------------|
B|-----------------------|
G|-----------------------|
D|--99999999-99999999-5--|
A|--99999999-99999999-5--| (x1)
D|--99999999-99999999-5--|

end on
[ Tab from: http://www.guitartabs.cc/tabs/f/fall_out_boy/sugar_were_going_down_tab_ver_4.html ]
E|----------------|
B|----------------|
G|----------------|
D|--2--0-0-0--0~--|
A|--2--0-0-0--0~--| (x1)
D|--2--0-0-0--0~--|
       ^ ^ ^

----------------------------------------------------------------------------
Guitar 2

intro

E|--------------------------------------------|
B|--------------------------------------------|
G|--------------------------------------------|
D|--xxxx-00000000-00000000-55555555-55555555--|
A|--xxxx-00000000-00000000-55555555-55555555--| (x1)
D|--xxxx-00000000-00000000-55555555-55555555--|

E|----------------------------------------|
B|----------------------------------------|
G|----------------------------------------|
D|--99999999-99999999-55555555-5555-xxxx--|
A|--99999999-99999999-55555555-5555-xxxx--| (x1)
D|--99999999-99999999-55555555-5555-xxxx--|

E|-------------------------|
B|--777-555-888-555-77-55--|
G|--777-777-777-777-77-77--|
D|-------------------------|
A|-------------------------| (x3)
D|-------------------------|

E|------|
B|--7~--|
G|--7~--|
D|------|
A|------|
D|------|

verse

E|---------------------------------------------------|
B|---------------------------------------------------|
G|---------------------------------------------------|
D|-----7-7h9p7-----7h9p7--------7-7h9p7-----7h9p7----|
A|--55---------7h9-------7---55---------7h9-------7--| (x2)
D|---------------------------------------------------|
    ^^                       ^^

pre-chorus

E|---------------------------------------|
B|---------------------------------------|
G|---------------------------------------|
D|--444444-5555555555-777777-9999999999--|
A|--444444-5555555555-777777-9999999999--| (x1)
D|--444444-5555555555-777777-9999999999--|
    ^^^^^^ ^^^^^^^^^^ ^^^^^^ ^^^^^^^^^^

E|----------------------------------------------|
B|----------------------------------------------|
G|----------------------------------------------|
D|--101010101010-9999999999-55555555-5555-xxxx--|
A|--101010101010-9999999999-55555555-5555-xxxx--| (x1)
D|--101010101010-9999999999-55555555-5555-xxxx--|
     ^ ^ ^ ^ ^ ^ ^^^^^^^^^^ ^^^^^^^^

chorus

E|---------------------------------------|
B|---------------------------------------|
G|---------------------------------------|
D|--00000000-00000000-55555555-55555555--|
A|--00000000-00000000-55555555-55555555--| (x1)
D|--00000000-00000000-55555555-55555555--|

E|----------------------------------------|
B|----------------------------------------|
G|----------------------------------------|
D|--99999999-99999999-55555555-5555-xxxx--|
A|--99999999-99999999-55555555-5555-xxxx--| (x1)
D|--99999999-99999999-55555555-5555-xxxx--|

E|-----------------------------------|
B|-----------------------------------|
G|------777-----777-----777-----777--|
D|--000-xxx-000-xxx-555-xxx-555-xxx--|
A|--000-555-000-555-555-555-555-555--| (x1)
D|--000-----000-----555-----555------|

E|-----------------------------------------|
B|-----------------------------------------|
G|------111111-----111111-----777-----777--|
D|--999--x-x-x-999--x-x-x-555-xxx-555-xxx--|
A|--999--9-9-9-999--9-9-9-555-555-555-555--| (x1)
D|--999--------999--------555-----555------|

post-chorus

E|--------------------------------------------|
B|--------------------------------------------|
G|--------------------------------------------|
D|--4444444-44-5555555-7777777-999-999-99999--|
A|--4444444-44-5555555-7777777-999-999-99999--| (x1)
D|--4444444-44-5555555-7777777-999-999-99999--|
    ^^^^ ^^ ^^ ^^^^ ^  ^^^^ ^^ ^^^ ^^^ ^^ ^

E|-------------------------------------------------|
B|-------------------------------------------------|
G|------------------------------------77-77777777--|
D|--10101010101010-1010-9999999-55555555-55555555--|
A|--10101010101010-1010-9999999-55555555-55555555--| (x1)
D|--10101010101010-1010-9999999-55555555-55555555--|
     ^ ^ ^ ^   ^ ^  ^ ^ ^^^^ ^ 

verse

E|---------------------------------------|
B|---------------------------------------|
G|---------------------------------------|
D|--00000000-55555555-99999999-55555555--|
A|--00000000-55555555-99999999-55555555--| (x1)
D|--00000000-55555555-99999999-55555555--|
    ^^^^^^^^ ^^^^^^^^ ^^^^^^^^ ^^^^^^^^

E|---------------------------------------|
B|---------------------------------------|
G|---------------------------------------|
D|--00000000-55555555-99999999-55555555--|
A|--00000000-55555555-99999999-55555555--| (x1)
D|--00000000-55555555-99999999-55555555--|
    ^^^^^^^^ ^^^^^^^^ ^^^^^^^^ ^^^

E|-------------------|
B|--------7-7-7-7-7--|
G|--77-77-7-7-7-7-7--|
D|--xx-xx-x-x-x-x-x--|
A|--55-55-5-7-7-7-7--| (x4)
D|-------------------|

pre-chorus

E|---------------------------------------|
B|---------------------------------------|
G|---------------------------------------|
D|--444444-5555555555-777777-9999999999--|
A|--444444-5555555555-777777-9999999999--| (x1)
D|--444444-5555555555-777777-9999999999--|
    ^^^^^^ ^^^^^^^^^^ ^^^^^^ ^^^^^^^^^^

E|-------------------------------------------|
B|-------------------------------------------|
G|-------------------------------------------|
D|--101010101010-9999999999-55555555-5555-5--|
A|--101010101010-9999999999-55555555-5555-5--| (x1)
D|--101010101010-9999999999-55555555-5555-5--|
     ^ ^ ^ ^ ^ ^ ^^^^^^^^^^ ^^^^^^^^

chorus

E|---------------------------------------|
B|---------------------------------------|
G|---------------------------------------|
D|--00000000-00000000-55555555-55555555--|
A|--00000000-00000000-55555555-55555555--| (x1)
D|--00000000-00000000-55555555-55555555--|

E|----------------------------------------|
B|----------------------------------------|
G|----------------------------------------|
D|--99999999-99999999-55555555-5555-xxxx--|
A|--99999999-99999999-55555555-5555-xxxx--| (x1)
D|--99999999-99999999-55555555-5555-xxxx--|

E|-----------------------------------|
B|-----------------------------------|
G|------777-----777-----777-----777--|
D|--000-xxx-000-xxx-555-xxx-555-xxx--|
A|--000-555-000-555-555-555-555-555--| (x1)
D|--000-----000-----555-----555------|

E|-----------------------------------------|
B|-----------------------------------------|
G|------111111-----111111-----777-----777--|
D|--999--x-x-x-999--x-x-x-555-xxx-555-xxx--|
A|--999--9-9-9-999--9-9-9-555-555-555-555--| (x1)
D|--999--------999--------555-----555------|

E|----------------------|
B|----------------------|
G|----------------------|
D|--2--0-0-0--0~----5~--|
A|--2--0-0-0--0~----5~--| (x1)
D|--2--0-0-0--0~----5~--|
       ^ ^ ^

chorus (different)

E|-------------------------|
B|--777-555-888-555-77-55--|
G|--777-777-777-777-77-77--|
D|-------------------------|
A|-------------------------| (x3)
D|-------------------------|

E|-------|
B|-------|
G|-------|
D|--5-5--|
A|--5-5--| (x1)
D|--5-5--|

E|------------------------|
B|------------------------|
G|--6h7-6h7-7--6h7-6h7-7--|
D|------------------------|
A|------------------------| (x4)
D|------------------------|

outro

E|------------------------|
B|------------------------|
G|--6h7-6h7-7--6h7-6h7-7--|
D|------------------------|
A|------------------------| (x3)
D|------------------------|

E|----------------|
B|----------------|
G|----------------|
D|--2--0-0-0--0~--|
A|--2--0-0-0--0~--| (x1)
D|--2--0-0-0--0~--|
       ^ ^ ^

E|------------------------------------------------------|
B|--777-555-888-555-77-55---777-555-888-555-77-55---7~--|
G|--777-777-777-777-77-77---777-777-777-777-77-77---7~--|
D|------------------------------------------------------|
A|------------------------------------------------------| (x1)
D|------------------------------------------------------|


ok there you go! if you have any comments or questions you can e-mail me at killinginthename247@yahoo.com


WE ARE THE SUMS
Comments