Fall Out Boy - Sugar, We're Going Down Chords & Tabs

 

Sugar, We're Going Down Chords & Tabs

Fall Out Boy Chords & Tabs

Version: 1 Type: Tab 22 ratings
1 star 2 stars 3 stars 4 stars 5 stars
comments

Sugar, We're Going Down Tab

   
Fall Out Boy
Sugar, We're Going Down
Tabbed by:  Jeff Martin
Tuning:  Drop D

Intro

Guitar 1

e-------------------------------------|
b-------------------------------------|
g-------------------------------------|
d-x-x-0000000055555555999999995555555-|
a-x-x-0000000055555555999999995555555-|
d-x-x-0000000055555555999999995555555-|

Guitar 1

e-----------------------------------------------|
b-----------------------------------------------|
g-------777--777--777--777--11-11-11--11-11-11.-|
d-x-x-00---00---55---55---99--------99--------5-|
a-x-x-0055500555555555555599-9--9--999-9--9--95-|
d-x-x-00---00---55---55---99--------99--------5-|

Guitar 2

e---------------------------------------------------|
b--7775555888555775777555888555775777555888555775-7-|
g--7777777777777777777777777777777777777777777777-7-|
d---------------------------------------------------|
a---------------------------------------------------|
d---------------------------------------------------|

Verse (no guitar)

Verse 

Guitar 1

e-----------------------------------|
b-----------------------------------|
g--77779999777799997777999977779999-|
d-----------------------------------|
a--55557777555577775555777755557777-|
d-----------------------------------|

Guitar 2

e----------------------------------------------------------|
b----------------------------------------------------------|
g----------------------------------------------------------|
d--777-------9---777----9------777----9------777----9------|
a--555h7p57-h9p7-555h7p57-h9p7-555h7p57-h9p7-555h7p57-h9p7-|
d----------------------------------------------------------|

Pre-Chorus (..."drop a"...)

Guitar 1 (muted, except the final 3 chords)

e----------------------------------------------------------|
b----------------------------------------------------------|
g----------------------------------------------------------|
d------------------------------------------------------555-|
a------------------------------------------------------555-|
d--0004445555555577779999999910.10.10.10.10.99999955555555-|

Chorus

Guitar 1-2

e------------------------------------------|
b------------------------------------------|
g------------------------------------------|
d-x-x-0000000055555555999999995555555------|
a-x-x-0000000055555555999999995555555------|
d-x-x-0000000055555555999999995555555------|

Guitar 1-2

e--------------------------------------------------|
b--------------------------------------------------|
g-------777----777--777---777--11-11-11--11-11-11--|
d-x-x-00-----00---55---55----99--------99--------5-|
a-x-x-0055500555555555555599999-9--9--999-9--9--95-|
d-x-x-00-----00---55---55----99--------99--------5-|

Guitar 1

e--------------------------------------------------------------|
b--------------------------------------------------------------|
g--------------------------------------------------------------|
d------------------------------------------------------------5-|
a------------------------------------------------------------5-|
d--000-0-55-555-55-7-777-7-99-999-99-10.10.10.-10.-99-999-99-5-|

Guitar 2

e------------------------------------------------------------------|
b--------------------------------------------------------------888-|
g--------------------------------------------------------------777-|
d-------0-------55-------7---------99----------10.---------99-5555-|
a-------0-------55-------7---------99----------10.---------99-5555-|
d-------0-------55-------7---------99----------10.---------99-5555-|

Verse 2

Guitar 1 (muted)
[ Tab from: http://www.guitartabs.cc/tabs/f/fall_out_boy/sugar_were_going_down_tab.html ]
e----------------------------------|
b----------------------------------|
g----------------------------------|
d----------------------------------|
a----------------------------------|
d-00000000555555559999999955555555-|

Guitar 2

e----------------------------------|
b----------------------------------|
g----------------------------------|
d------------------------------777-|
a----------------------------------|
d------------------------------555-|

Guitar 1

e-----------------------------------|
b-----------------------------------|
g--77779999777799997777999977779999-|
d-----------------------------------|
a--55557777555577775555777755557777-|
d-----------------------------------|

Guitar 2

e-----------------------------------|
b-----------------------------------|
g--77-777--77-777--77-777--77-777---|
d-----------------------------------|
a--55-555--55-555--55-555--55-555---|
d-----------------------------------|

Pre-Chorus

Pre-Chorus (..."drop a"...)

Guitar 1 (muted, except the final 3 chords)

e----------------------------------------------------------|
b----------------------------------------------------------|
g----------------------------------------------------------|
d------------------------------------------------------555-|
a------------------------------------------------------555-|
d--0004445555555577779999999910.10.10.10.10.99999955555555-|

Chorus

Guitar 1-2

e-------------------------------------|
b-------------------------------------|
g-------------------------------------|
d-x-x-0000000055555555999999995555555-|
a-x-x-0000000055555555999999995555555-|
d-x-x-0000000055555555999999995555555-|

Guitar 1-2

e----------------------------------------------|
b----------------------------------------------|
g-------777--777--777--777--11-11-11-11-11-11--|
d-x-x-00---00---55---55---99-------99--------5-|
a-x-x-0055500555555555555599-9--9--99-9--9--95-|
d-x-x-00---00---55---55---99-------99--------5-|

Guitar 1-2

e------------------------------------------|
b------------------------------------------|
g------------------------------------------|
d--22-2-20-----------------5----0----5--55-|
a--22-2-20-----------------5----0----5--55-|
d--22-2-20-down, down...---5----0----5--55-|

Guitar 1 (muted)

e-----------------------------------------------------------|
b-----------------------------------------------------------|
g-----------------------------------------------------------|
d-----------------------------------------------------------|
a-----------------------------------------------------------|
d--000-00 -000-00-555-55-555-55-999-99-999-99-555-55-555-55-|

Guitar 2

e-------------------------------------------------|
b-------------------------------------------------|
g-------------------------------------------------| (Repeat continuously)
d------9-11.-11.h.12.p11.-----9--11.-11.h.12.p11.-|
a--10.--------------------10.---------------------|
d-------------------------------------------------|

Guitar 1

e---------------------------------------------------------|
b---------------------------------------------------------|
g---------------------------------------------------------|
d--000-00-000-00-555-55-555-55-999-99-999-99-555-55-555-5-|
a--000-00-000-00-555-55-555-55-999-99-999-99-555-55-555-5-|
d--000-00-000-00-555-55-555-55-999-99-999-99-555-55-555-5-|

Guitar 2

e-------------------------------------------------|
b-------------------------------------------------|
g-------------------------------------------------| (Repeat continuously)
d------9-11.-11.h.12.p11.------9-11.-11.h.12.p11.-|
a--10.---------------------10.--------------------|
d-------------------------------------------------|

Guitars 1-2

e-----------|
b-----------|
g-----------|
d--22-2-2-0-|
a--22-2-2-0-|
d--22-2-2-0-|  END...

Enjoy!
Comments