Fall Out Boy - Start Today Chords & Tabs

 

Start Today Chords & Tabs

Fall Out Boy Chords & Tabs

Version: 1 Type: Tab

Start Today Tab

-----------------------------------------------------------------------------
			     Start Today - Fall Out Boy
-----------------------------------------------------------------------------

Tabbed by: kiefermatot

Email: bamcky2k_69@hotmail.com

Tuning: Standard


E|---------------|------------------------------------------------|
B|---------------|------------------------------------------------|
G|--6--6--6--6---|-----------------------6--6--6---6--6--6--------|
D|--6--6--6--6---|---4--4--4---7--7--7---6--6--6---6--6--6--------|
A|--4--4--4--4---|---4--4--4---7--7--7---4--4--4---4--4--4--------|
E----------------|---2--2--2---5--5--5----------------------------|
[ Tab from: http://www.guitartabs.cc/tabs/f/fall_out_boy/start_today_tab.html ]
E|-----------------------------------------------------------------|
B|-----------------------------------------------------------------|
G|--4--6--4----------------------4--6--4--------------4--4--4--4---|
D|--4--6--4--6--6--6---7--7--7---4--6--4--7--7--7--7--4--4--4--4---|
A|--2--4--2--6--6--6---7--7--7---2--4--2--7--7--7--7--2--2--2--2---|
E|-----------4--4--4---5--5--5------------5--5--5--5---------------|

E|-----------------------------------------------------------------|
B|-----------------------------------------------------------------|
G|-----------------------------------------------------------------|
D|--4--4--4--4---7--7--7--7---2--2---2--2---2--2-------------------|
A|--4--4--4--4---7--7--7--7---2--2---2--2---2--2-------------------|
E|--2--2--2--2---5--5--5--5---0--0---0--0---0--0-------------------|
PM.  .  .  .   .  .  .  .   .  .   .  .   .  .