Fall Out Boy - Sophomore Slump Or Comeback Of The Year Chords & Tabs

 

Sophomore Slump Or Comeback Of The Year Chords & Tabs

Fall Out Boy Chords & Tabs

Version: 1 Type: Tab

Sophomore Slump Or Comeback Of The Year Tab

   
Fall out boy Sophomore Slump Or Comeback Of The Year
From the album: from under the cork tree
Track: 8
Tabbed by Liam 
Email: guitar_rocker_47@hotmail.com
Tuning: Standard

Re-submitting this due to UG not accepted the first draft so second draft now

Notes-

Improvements include, rhythm tabbed on verse’s –this is not present on other internet
tabs, very simple to read and understand –again often other tabs are clumpy and
unreadable, simple to differentiate between both guitars.

Additional (added when tabbing the first verse) there is a second guitar in the verse
playing octaves!! Why has no1 else picked up on this –it is so obvious to me. Please
accept this UG? Other tabs are missing this.

Guitar tab  

Intro
Guitar 1
E|---------------------------------------|--------------------------|------|
B|---------------------------------------|--------------------------|------|
G|-44444444------------------------------|-44444444-----------------|------|
D|-44444444-44444444-22222222--6666-2222-|-44444444-44444444--2~~~~-|-xxxx-|
A|-22222222-11111111-22222222--6666-2222-|-22222222-11111111--2~~~~-|-xxxx-|
E|-------------------00000000--4444-0000-|--------------------0~~~~-|-xxxx-|
PM ******** ******** ********  *********   ******** ********

Verse
Guitar 1
E|--------------------|--------------------|--------------------|--------------------|
B|--------------------|--------------------|--------------------|--------------------|
G|------------------4-|------------------4-|------------------4-|------------------4-|
D|66---4---22---444-4-|66---4---22---444-4-|66---4---22---444-4-|66---4---22---444-4-|
A|66-x-4-x-22-x-444-2-|66-x-4-x-22-x-444-2-|66-x-4-x-22-x-444-2-|66-x-4-x-22-x-444-2-|
E|44-x-2-x-00-x-222---|44-x-2-x-00-x-222---|44-x-2-x-00-x-222---|44-x-2-x-00-x-222---|

Verse cont
Guitar 1
E|--------------------|--------------------|--------------------|--------------------|
B|--------------------|--------------------|--------------------|--------------------|
G|------------------4-|------------------4-|------------------4-|------------------4-|
D|66---4---22---444-4-|66---4---22---444-4-|66---4---22---444-4-|66---4---22---444-4-|
A|66-x-4-x-22-x-444-2-|66-x-4-x-22-x-444-2-|66-x-4-x-22-x-444-2-|66-x-4-x-22-x-444-2-|
E|44-x-2-x-00-x-222---|44-x-2-x-00-x-222---|44-x-2-x-00-x-222---|44-x-2-x-00-x-222---|

Guitar 2
E|--------------------|--------------------|--------------------|--------------------|
B|-7--7--7--7-7-7-7-7-|-7--7--7--7-7-7-7-7-|-7--7--7--7-7-7-7-7-|-7--7--7--7-7-7-7-7-|
G|-x--x--x--x-x-x-x-x-|-x--x--x--x-x-x-x-x-|-x--x--x--x-x-x-x-x-|-x--x--x--x-x-x-x-x-|
D|-4--4--4--4-4-4-4-4-|-4--4--4--4-4-4-4-4-|-4--4--4--4-4-4-4-4-|-4--4--4--4-4-4-4-4-|
A|--------------------|--------------------|--------------------|--------------------|
E|--------------------|--------------------|--------------------|--------------------|

Pre Chorus
E|--------------------------------------|--------------------------------------|
B|--------------------------------------|--------------------------------------|
G|----------44444444-----------44444444-|----------44444444-----------44444444-|
D|-22222222-44444444--22222222-44444444-|-22222222-44444444--22222222-44444444-|
A|-22222222-22222222--22222222-22222222-|-22222222-22222222--22222222-22222222-|
E|-00000000-----------00000000----------|-00000000-----------00000000----------|
PM ******** ********  ******** ********   ******** ********  ******** **

Chorus
Guitar 1 
E|--------------------------------------------------------|
B|--------------------------------------------------------|
G|-4-4-4-4-4-4-4-4----------------------------------------|
D|-4-4-4-4-4-4-4-4---4-4-4-4-4-4-4-4--22222222--6666-2222-|
A|-2-2-2-2-2-2-2-2---1-1-1-1-1-1-1-1--22222222--6666-2222-|
E|------------------------------------00000000--4444-0000-|
Guitar 2
E|--------------------------------------------------------|
B|1212121212121212--1111111111111111------------9999------|
G|-x-x-x-x-x-x-x-x---x-x-x-x-x-x-x-x--99999999--xxxx-9999-|
D|-9-9-9-9-9-9-9-9---8-8-8-8-8-8-8-8--xxxxxxxx--6666-xxxx-|
A|------------------------------------77777777-------7777-|
E|--------------------------------------------------------|

Guitar 1
E|----------------------------------------------------------|
B|----------------------------------------------------------|
G|-4-4-4-4-4-4-4-4------------------------------------------|
D|-4-4-4-4-4-4-4-4---4-4-4-4-4-4-4-4--2---22222222-22222222-|
A|-2-2-2-2-2-2-2-2---1-1-1-1-1-1-1-1--2-x-22222222-22222222-|
E|------------------------------------0-x-00000000-00000000-|
Guitar 2
E|----------------------------------------------------------|
B|1212121212121212--1111111111111111--------9999-8--9999----|
G|-x-x-x-x-x-x-x-x---x-x-x-x-x-x-x-x--9---99999999-99999999-|
D|-9-9-9-9-9-9-9-9---8-8-8-8-8-8-8-8--x---xxxxxxxx-xxxxxxxx-|
A|------------------------------------7---77777777-77777777-|
E|----------------------------------------------------------|

Pre Verse 2
Guitars 1 and 2
E|----------------------|
B|----------------------|
G|--------------------4-|
D|66---4---22---4-----4-|
A|66-x-4-x-22-x-4-444-2-|
E|44-x-2-x-00-x-2-222---|
PM                *****
[ Tab from: http://www.guitartabs.cc/tabs/f/fall_out_boy/sophomore_slump_or_comeback_of_the_year_tab.html ]
Verse 2
Guitar 1
E|--------------------|--------------------|--------------------|--------------------|
B|--------------------|--------------------|--------------------|--------------------|
G|--------------------|--------------------|--------------------|--------------------|
D|------------------4-|------------------4-|------------------4-|------------------4-|
A|66-6\44-4\22-2\444--|66-6\44-4\22-2\444--|66-6\44-4\22-2\444--|66-6\44-4\22-2\444--|
E|--------------------|--------------------|--------------------|--------------------|

Fill
Guitar 1
E|-------------|
B|-------------|
G|-------------|
D|-6-6-6-66666-|
A|-6-6-6-66666-|
E|-4-4-4-44444-|
PM ***********

Verse 2 cont
Guitar 1
E|--------------------|--------------------|--------------------|--------------------|
B|--------------------|--------------------|--------------------|--------------------|
G|------------------4-|------------------4-|------------------4-|------------------4-|
D|66---4---22---444-4-|66---4---22---444-4-|66---4---22---444-4-|66---4---22---444-4-|
A|66-x-4-x-22-x-444-2-|66-x-4-x-22-x-444-2-|66-x-4-x-22-x-444-2-|66-x-4-x-22-x-444-2-|
E|44-x-2-x-00-x-222---|44-x-2-x-00-x-222---|44-x-2-x-00-x-222---|44-x-2-x-00-x-222---|

Guitar 2
E|--------------------|--------------------|--------------------|--------------------|
B|-7--7--7--7-7-7-7-7-|-7--7--7--7-7-7-7-7-|-7--7--7--7-7-7-7-7-|-7--7--7--7-7-7-7-7-|
G|-x--x--x--x-x-x-x-x-|-x--x--x--x-x-x-x-x-|-x--x--x--x-x-x-x-x-|-x--x--x--x-x-x-x-x-|
D|-4--4--4--4-4-4-4-4-|-4--4--4--4-4-4-4-4-|-4--4--4--4-4-4-4-4-|-4--4--4--4-4-4-4-4-|
A|--------------------|--------------------|--------------------|--------------------|
E|--------------------|--------------------|--------------------|--------------------|

Pre Chorus 2
Guitars 1 and 2
E|--------------------------------------|
B|--------------------------------------|
G|----------44444444-----------44444444-|
D|-22222222-44444444--22222222-44444444-|
A|-22222222-22222222--22222222-22222222-|
E|-00000000-----------00000000----------|
PM ******** ********  ******** **

Bridge
Guitars 1 and 2
E|---------------------------------------|-------------------------------------------|
B|---------------------------------------|-------------------------------------------|
G|-44444444------------------------------|-44444444----------------------------------|
D|-44444444-44444444-22222222--6666-2222-|-44444444-44444444--22222222-22222222-2~~~~|
A|-22222222-11111111-22222222--6666-2222-|-22222222-11111111--22222222-22222222-2~~~~|
E|-------------------00000000--4444-0000-|--------------------00000000-00000000-0~~~~|

E|---------------------------------------|-------------------------------------|
B|---------------------------------------|-------------------------------------|
G|---------------------------------------|----------------------------44444444-|
D|-2-22222222-22222222-22222222-22222222-|-22222222-22222222-22222222-44444444-|
A|-2-22222222-22222222-22222222-22222222-|-22222222-22222222-22222222-22222222-|
E|---00000000-00000000-00000000-00000000-|-00000000-00000000-00000000----------|
PM   ******** ******** ******** ********   ******** ********

Bridge part 2
Guitar 1
E|-------------------------------------|---------------------------------------------|
B|-------------------------------------|---------------------------------------------|
G|----------44444444----------44444444-|---------44444444----------44444444--4~~~~~~-|
D|-22222222-44444444-22222222-44444444-|22222222-44444444-22222222-44444444--4~~~~~~-|
A|-22222222-22222222-22222222-22222222-|22222222-22222222-22222222-22222222--2~~~~~~-|
E|-00000000----------00000000----------|00000000----------00000000-------------------|

Pre outro
Guitar 1
E|-----------------------------------|
B|-----------------------------------|
G|-------------------4-4-4-4-4-4-4-4-|
D|-2-2-2-2-2-2-2-2---4-4-4-4-4-4-4-4-|
A|-2-2-2-2-2-2-2-2---2-2-2-2-2-2-2-2-|
E|-0-0-0-0-0-0-0-0-------------------|
Guitar 2
E|-----------------------------------|
B|------------------1212121212121212-|
G|-9-9-9-9-9-9-9-9---x-x-x-x-x-x-x-x-|
D|-x-x-x-x-x-x-x-x---9-9-9-9-9-9-9-9-|
A|-7-7-7-7-7-7-7-7-------------------|
E|-----------------------------------|

Outro
Guitar 1 
E|--------------------------------------------------------|
B|--------------------------------------------------------|
G|-4-4-4-4-4-4-4-4----------------------------------------|
D|-4-4-4-4-4-4-4-4---4-4-4-4-4-4-4-4--22222222--6666-2222-|
A|-2-2-2-2-2-2-2-2---1-1-1-1-1-1-1-1--22222222--6666-2222-|
E|------------------------------------00000000--4444-0000-|
Guitar 2
E|--------------------------------------------------------|
B|1212121212121212--1111111111111111------------9999------|
G|-x-x-x-x-x-x-x-x---x-x-x-x-x-x-x-x--99999999--xxxx-9999-|
D|-9-9-9-9-9-9-9-9---8-8-8-8-8-8-8-8--xxxxxxxx--6666-xxxx-|
A|------------------------------------77777777-------7777-|
E|--------------------------------------------------------|

Guitar 1
E|---------------------------------------------|
B|---------------------------------------------|
G|-4-4-4-4-4-4-4-4-----------------------------|
D|-4-4-4-4-4-4-4-4---4-4-4-4-4-4-4-4--2~~~~~~~-|
A|-2-2-2-2-2-2-2-2---1-1-1-1-1-1-1-1--2~~~~~~~-|
E|------------------------------------0~~~~~~~-|
Guitar 2
E|---------------------------------------------|
B|1212121212121212--1111111111111111-----------|
G|-x-x-x-x-x-x-x-x---x-x-x-x-x-x-x-x-----------|
D|-9-9-9-9-9-9-9-9---8-8-8-8-8-8-8-8--2~~~~~~~-|
A|------------------------------------2~~~~~~~-|
E|------------------------------------0~~~~~~~-|


Order

Intro
Verse
Verse cont
Pre Chorus
Chorus
Pre Verse 2
Verse 2
Fill
Verse 2 cont
Pre Chorus 2
Chorus
Bridge
Bridge part 2
Pre outro
Outro