Fall Out Boy - Sophmore Slump Or Comeback Of The Year Chords & Tabs

 

Sophmore Slump Or Comeback Of The Year Chords & Tabs

Fall Out Boy Chords & Tabs

Version: 2 Type: Tab 0 ratings
1 star 2 stars 3 stars 4 stars 5 stars
comments

Sophmore Slump Or Comeback Of The Year Tab

   
Song: Sophmore Slump Or Comeback Of The Year
Artist: Fall Out Boy
Album: From Under The Cork Tree - 2005
Tuning: Standard

Intro:
*Note: Intro is palm muted (pm), EM is played open as the last chord*
"Are we growing up? or just going down..."
e|---------------------------------------------------------------------------|
B|---------------------------------------------------------------------------|
G|-44444444-44444444--------------------44444444-44444444--------------------|
D|-44444444-44444444-22222222-6666-2222-44444444-44444444-2------------------|X1
A|-22222222-11111111-22222222-6666-2222-22222222-11111111-2------------------|
E|-------------------00000000-4444-0000-------------------0------------------|
PM xxxxxxxx xxxxxxxx xxxxxxxx xxxx xxxx xxxxxxxx xxxxxxxx

Verse:
*I find it easier to play the ending part of the riff faster*
"We're the therapists pumping through your speakers..."
e|---------------|
B|---------------|
G|-------------4-|
D|-66-44-22-44-4-|   X8
A|-66-44-22-44-2-|
E|-44-22-00-22---|

Pre-Chorus:
*Palm Muted All Way Through*
"I'll keep singing this lie..."
e|-------------------|
B|-------------------|
G|----------44444444-|
D|-22222222-44444444-|    X4
A|-22222222-22222222-|
E|-00000000----------|
PM xxxxxxxx xxxxxxxx

Chorus:
"Are we growing up? or just going down..."
e|---------------------------------------------------------------------------------|
B|---------------------------------------------------------------------------------|
G|-44444444-44444444--------------------44444444-44444444--------------------------|
D|-44444444-44444444-22222222-6666-2222-44444444-44444444-2-x222222----------------|
A|-22222222-11111111-22222222-6666-2222-22222222-11111111-2-x222222----------------|
E|-------------------00000000-4444-0000-------------------0-x000000----------------|

Verse 2:
*Once again, I find it easier to play the ending part of the riff faster*
"We're traveled like gypsies..."
e|---------------|
B|---------------|
G|-------------4-|
D|-66-44-22-44-4-|   X8
A|-66-44-22-44-2-|
E|-44-22-00-22---|
[ Tab from: http://www.guitartabs.cc/tabs/f/fall_out_boy/sophmore_slump_or_comeback_of_the_year_tab_ver_2.html ]
Pre-Chorus:
*Palm Muted All Way Through*
"I'll keep singing this lie..."
e|-------------------|
B|-------------------|
G|----------44444444-|
D|-22222222-44444444-|    X4
A|-22222222-22222222-|
E|-00000000----------|
PM xxxxxxxx xxxxxxxx

Chrous:
"Are we growing up? or just going down..."
e|--------------------------------------------------------------------|
B|--------------------------------------------------------------------|
G|-44444444-44444444--------------------44444444-44444444-------------|
D|-44444444-44444444-22222222-6666-2222-44444444-44444444-2-x222222---|
A|-22222222-11111111-22222222-6666-2222-22222222-11111111-2-x222222---|
E|-------------------00000000-4444-0000-------------------0-x000000---|

Bridge Part 1:
* ~= Let Ring *
"There's a drug in the thermostat..."
e|----------------------------------------------------------------------------------|
B|----------------------------------------------------------------------------------|
G|-44444444-44444444--------------------44444444-44444444---------------------------|
D|-44444444-44444444-22222222-6666-2222-44444444-44444444-2222222~------------------|
A|-22222222-11111111-22222222-6666-2222-22222222-11111111-2222222~------------------|
E|-------------------00000000-4444-0000-------------------0000000~------------------|

Bridge Part 2:
*Palm Muted*
"The best part of "Believe" is the "Lie""
e|-----------------|
B|-----------------|
G|-----------------|  X6
D|-22222222--------|
A|-22222222--------|
E|-00000000--------|

Bridge Part 3:
"So give in or just give up..."
e|-------------------|
B|-------------------|
G|----------44444444-|
D|-22222222-44444444-|    X5  On Last Time Play And Let Ring EM Chord
A|-22222222-22222222-|
E|-00000000----------|

Pre-Chorus:
*Played Open*
e|-------------------|
B|-------------------|
G|----------44444444-|
D|-22222222-44444444-|    X1
A|-22222222-22222222-|
E|-00000000----------|

Chrous:
"Are we growing up? or just going down..."
e|-------------------------------------------------------------------|
B|-------------------------------------------------------------------|
G|-44444444-44444444--------------------44444444-44444444------------|
D|-44444444-44444444-22222222-6666-2222-44444444-44444444------2~----|
A|-22222222-11111111-22222222-6666-2222-22222222-11111111------2~----|
E|-------------------00000000-4444-0000------------------------0~----|

I don't wanna fix mistakes, k.
stop listening to fall out boy,
and go listen to some atreyu or something.
Comments