Fall Out Boy - Short Fast And Loud Chords & Tabs

 

Short Fast And Loud Chords & Tabs

Fall Out Boy Chords & Tabs

Version: 1 Type: Tab 0 ratings
1 star 2 stars 3 stars 4 stars 5 stars
comments

Short Fast And Loud Tab

   
Band: Fall Out Boy
Song: Short Fast And Loud

Tabber: John Cukras
Email: riffreaper@yahoo.com

Tuning: Normal

Intro:
E------------------------|
B------------------------|
G------------------------|
D----------------------2-|
A-4-2-3-4-5-4-3-4-5-6--2-|
E-2---------2----------0-|
[ Tab from: http://www.guitartabs.cc/tabs/f/fall_out_boy/short_fast_and_loud_tab.html ]
Riff 1: 2 guitars. 0pm's throughout.  A                 B
E---------------------------------------------|-------------------------------------------------------|
B---------------------------------------------|-------------------------------------------------------|
G---------------------------------------------|-------------------------------------------------------|
D-3-2-3-2-3-2-3-5-3-2-3 x's 3--5-7-9-10-9-7-5-|-3-2-3-2-3-2-3-5-3-2-3-x's 2--22----22----22----22-----|
A------------------------------3-5-7-8--7-5-3-|------------------------------22-55-22-55-22-55-22-55--|
E---------------------------------------------|------------------------------00-33-00-33-00-33-00-33--|

Riff 1: A , B

Riff 2:  Guitar 1                                    Guitar 2
E-----------------------------------------------|-----------------|
B-----------------------------------------------|-----------------|
G-----------22-22-------------------------------|-----------------|
D-55-55-----22-22-22----------------------------|-3-5-3-2h3 x's 8-|
A-33-33-55--00-00-22--55-55/33--77-77/55--------|-----------------|
E-------33--------00--33-33/11--55-55/33 x's 2--|-----------------|

Riff 1: A , B

Riff 1: A , B

Riff 3:
E------------------------------------------------------|
B------------------------------------------------------|
G------------------------------------------------------|
D----9----99-----7----77-----5----55-----7----77-------|
A-77---77-----55---55-----33---33-----55---55--- x's 4-|
E------------------------------------------------------|

Riff 2 x's 2
Comments