Fall Out Boy - Short Fast And Loud Chords & Tabs

 

Short Fast And Loud Chords & Tabs

Fall Out Boy Chords & Tabs

Version: 1 Type: Bass Tab 0 ratings
1 star 2 stars 3 stars 4 stars 5 stars
comments

Short Fast And Loud Bass Tab

Standard Tuning

Intro
G ----------|
D ----------|
A -7--5--3~-|
E ----------|

Verse - 2x
G -------------------------------------------------|
D -------------------------------------------------|
A 33333333----------55555555--3-5-7-8-7-5-33333333-|
E ---------33333333--------------------------------|
[ Tab from: http://www.guitartabs.cc/tabs/f/fall_out_boy/short_fast_and_loud_btab.html ]
G ----------------------------|
D ----------------------------|
A ------------33-33-3-33-3-33-|
E -33333333-------------------|

Chorus - 2x
G --------------------------------|
D --------------------------------|
A -33-3h5-3----------------33-333-|
E ----------33-333--55-555--------|

Verse 2x

Bridge - 4x
G ---------------------------------------|
D ---------------------------------------|
A -33333333-33333333--55555555--33333333-|
E ---------------------------------------|

Chorus - 4x
Comments