Fall Out Boy - Saturday Chords & Tabs

 

Saturday Chords & Tabs

Fall Out Boy Chords & Tabs

Version: 3 Type: Tab 0 ratings
1 star 2 stars 3 stars 4 stars 5 stars
comments

Saturday Tab

This is the bridge/solo from Saturday, the other tab was pretty good except it was 
this.


Guitar I
---2---0-------------2---0-------------2---0-------------2---0--------|
-0---0----4-2p0---0----0----4-2p0---0----0----4-2p0---0----0----4-2p0-|
----------------------------------------------------------------------|
----------------------------------------------------------------------|
----------------------------------------------------------------------|
----------------------------------------------------------------------|

Guitar II
----------------------------------------------------------------------|
----------------------------------------------------------------------|
----------------------------------------------------------------------|
-9--------------------------------------------------------------------|
-9-----let this ring--------------------------------------------------|
-7--------------------------------------------------------------------|


Guitar I
---2---0-----------2---0-----------2---0-----------2---0--------|
-0---0----4-2p0--0---0----4-2p0--0---0----4-2p0--0---0----4-2p0-|
----------------------------------------------------------------|
----------------------------------------------------------------|
----------------------------------------------------------------|
----------------------------------------------------------------|

Guitar II
----------------------------------------------------------------|
----------------------------------------------------------------|
----------------------------------------------------------------|
-2---------------4---------------6---------------9-----9----9---|
-2---------------4---------------6---------------9-----9----9---|
-0---------------2---------------4---------------7-----6----7---|

Guitar I
---2---0-----------2---0-----------2---0------------------|
-0---0----4-2p0--0---0----4-2p0--0---0----4-2p0-----------|
-------------------------------------------------4--------|
-------------------------------------------------4--------|
-------------------------------------------------2--------|
----------------------------------------------------------|

Guitar II
----------------------------------------------------------|
----------------------------------------------------------|
----------------------------------------------------------|
-2---------------4---------------6---------------9--------|
-2---------------4---------------6---------------9--------|
-0---------------2---------------4---------------7--------|
[ Tab from: http://www.guitartabs.cc/tabs/f/fall_out_boy/saturday_tab_ver_3.html ]
Guitar I
---------------------------------------------------|
---------------------------------------------------|
---------------------------------------------------|
---2--2--2--2--2--2--2--2---4--4--4--4--4--4--4--4-|
---2--2--2--2--2--2--2--2---4--4--4--4--4--4--4--4-|
---0--0--0--0--0--0--0--0---2--2--2--2--2--2--2--2-|

Guitar II
---------------------------------------------------|
---------------------------------------------------|
--16-16-16-16-16-16-16-16--15-15-15-15-15-15-15-15-|
---x--x--x--x--x--x--x--x---x--x--x--x--x--x--x--x-|
--14-14-14-14-14-14-14-14--13-13-13-13-13-13-13-13-|
---------------------------------------------------|


Guitar I
                                                      3x
----------------------------------------------------|
----------------------------------------------------|
----------------------------------------------------|
--6--6--6--6--6--6--6--6---9--9--9--9--9--9--9--9---|
--6--6--6--6--6--6--6--6---9--9--9--9--9--9--9--9---|
--4--4--4--4--4--4--4--4---7--7--7--6--6--6--7--7---|

Guitar II
                                                     3x
----------------------------------------------------|
----------------------------------------------------|
-13-13-13-13-13-13-13-13--16-16-16-15-15-15-16-16---|
--x--x--x--x--x--x--x--x---x--x--x--x--x--x--x--x---|
-11-11-11-11-11-11-11-11--14-14-14-13-13-13-14-14---|
----------------------------------------------------|

Guitar I
--------------------------------------------------|
--------------------------------------------------|
--------------------------------------------------|
--2--2--2--2--2--2--2--2---4--4--4--4--4--4--4--4-|
--2--2--2--2--2--2--2--2---4--4--4--4--4--4--4--4-|
--0--0--0--0--0--0--0--0---2--2--2--2--2--2--2--2-|

Guitar II
--------------------------------------------------|
--------------------------------------------------|
-16-16-16-16-16-16-16-16--15-15-15-15-15-15-15-15-|
--x--x--x--x--x--x--x--x---x--x--x--x--x--x--x--x-|
-14-14-14-14-14-14-14-14--13-13-13-13-13-13-13-13-|
--------------------------------------------------|

Guitar I
------------------------------------------|
------------------------------------------|
------------------------------------------|
--6--6--6--6--6--6--6--6---9-----9-----9--|
--6--6--6--6--6--6--6--6---9-----9-----9--|
--4--4--4--4--4--4--4--4---7-----6s----7--|

Guitar II
------------------------------------------|
------------------------------------------|
-16-16-16-16-16-16-16-16--16----15-15s16--|
--x--x--x--x--x--x--x--x---x-----x--x--x--|
-14-14-14-14-14-14-14-14--14----13-13s14--|
------------------------------------------|

hope that helps out.
Comments