Fall Out Boy - Saturday Chords & Tabs

 

Saturday Chords & Tabs

Fall Out Boy Chords & Tabs

Version: 2 Type: Bass Tab

Saturday Bass Tab

Intro
G|--------------------------------------------------------------|
D|--------------------------------------------------------------|
A|-------22222--------------------------------------------------|
E|-44444-------------5/99999------------------------------------|
B|-------------55555--------------------------------------------|

G|--------------------------------------------------------------|
D|--------------------------------------------------------------|
A|----------------22222/777777-777777---------------------------|
E|-------44-66-77-----------------------------------------------|
B|-55555--------------------------------------------------------|

Verse
G|--------------------------------------------------------------|
D|--------------------------------------------------------------|
A|-------22222--------------------------------------------------|x2
E|-44444-------5/99999/77777------------------------------------|
B|--------------------------------------------------------------|

G|--------------------------------------------------------------|
D|--------------------------------------------------------------|
A|--------------------------------------------------------------|
E|--2-4---------------------------------------------------------|
B|------0/5/6/5-------------------------------------------------|
[ Tab from: http://www.guitartabs.cc/tabs/f/fall_out_boy/saturday_btab_ver_2.html ]
Chorus
G|--------------------------------------------------------------|
D|--------------------------------------------------------------|
A|-22222-44444--------------------------------------------------|x2
E|-------------22222-0000000------------------------------------|
B|--------------------------------------------------------------|

PostChorus
G|--------------------------------------------------------------|
D|--------------------------------------------------------------|
A|-2222(pause)-1111(Pause)-3333(pasuse)-666666------------------|x2
E|--------------------------------------------------------------|
B|--------------------------------------------------------------|

Verse
Chorus
Post chorus

Bridge
G|--------------------------------------------------------------|
D|--------------------------------------------------------------|
A|-2---------2--------------------------------------------------|
E|---0-2-4-0---4-0-2-4------------------------------------------|
B|--------------------------------------------------------------|

G|--------------------------------------------------------------|
D|--------------------------------------------------------------|
A|-------------------22222--------------------------------------|x2
E|-------22222-44444--------------------------------------------|
B|-55555--------------------------------------------------------|

Chorus
POst Chorus

Outro
G|----------------------------------------------------------------|
D|----------------------------------------------------------------|
A|-----2----------------------------------------------------------|
E|-2-4--5-0-------------------------------------------------------|
B|----------------------------------------------------------------|