Fall Out Boy - Saturday Chords & Tabs

 

Saturday Chords & Tabs

Fall Out Boy Chords & Tabs

Version: 1 Type: Bass Tab 0 ratings
1 star 2 stars 3 stars 4 stars 5 stars
comments

Saturday Bass Tab

   
Intro
G ---------------------------------------|
D ---------------------------------------|
A ---------------------------------------|
E -44444444-77777777-0-00-00-00-99999999-|

G ---------------------------------------------|
D ---------------------------------------------|
A ---------------------------------------------|
E -00000000--44-66-77-7777--00000000--00000000-|

Verse 2x
G -------------------------------------|
D -------------------------------------|
A -------------------------------------|
E -44444444-77777777-99999999-77777777-|

G ------------|
D ------------|
A ---------7~-|
E -2~--4~-----|
[ Tab from: http://www.guitartabs.cc/tabs/f/fall_out_boy/saturday_btab.html ]
Chorus 2x
G -----------------------------|
D -----------------------------|
A -----------------------------|
E -77777777-99999999-2222-0000-|

Post Chorus 2x
G --------------------------------|
D --------------------------------|
A --------------------------------|
E -7777x-6666x-9999x-12-12-12-12x-|

Verse 2x
Pre Chorus
Chorus 2x
Post Chorus 2x

G -------------------------------------------|
D -------------------------------------------|
A -----------------7~------------------------|
E -7~--0~--2~--4~-----7~--4~--0~--2~--4~--7x-|

Bridge 4x
G ------------------------|
D ------------------------|
A ------------------------|
E -0000--2222--4444--7777-|

Bridge Ending
G -----------------------|
D -----------------------|
A -----------------------|
E -7~--9999--12-12-12-12-|

Chorus
Post Chorus

Outro
G -------------|
D -------------|
A ----------7~-|
E -2--4--7-----|
Comments