Fall Out Boy - Reinventing The Wheel To Run Myself Over Chords & Tabs

 

Reinventing The Wheel To Run Myself Over Chords & Tabs

Fall Out Boy Chords & Tabs

Version: 1 Type: Tab 0 ratings
1 star 2 stars 3 stars 4 stars 5 stars
comments

Reinventing The Wheel To Run Myself Over Tab

   
Fall Out Boy
Reinventing the Wheel to Run Myself Over
Tabbed by Kellen

X=mute strings
X=quick stop
/=slide
~=let ring

Standard Tuning

Intro
E|---------
B|---------
G|---------
D|-99-77-9x
A|-99-77-9x
E|-77-55-7x

Short bass solo (do a pickslide at the end of the bass solo, then go in to pre verse)

Pre Verse
E|-----------------------
B|-----------------------
G|-----------------------
D|-9999-11111111-22222222
A|-9999-11111111-22222222
E|-7777-9-9-9-9--00000000

Verse
E|-------------------------------------------------
B|-------------------------------------------------
G|-------------------------------------------------
D|-9999-11111111-22222222-9999-11111111-22-22-22-22
A|-9999-11111111-22222222-9999-11111111-22-22-22-22
E|-7777-9-9-9-9--00000000-7777-9-9-9-9--00-00-00-00

Verse continued
E|--------------------------------------------------
B|--------------------------------------------------
G|--------------------------------------------------
D|-9999-11111111-22222222-9999-11111111-22-22-22-7/9
A|-9999-11111111-22222222-9999-11111111-22-22-22-7/9
E|-7777-9-9-9-9--00000000-7777-9-9-9-9--00-00-00-5/7

Pre Chorus
E|--------------------------------------------------------------------
B|--------------------------------------------------------------------
G|--------------------------------------------------------------------
D|-4444444444444444-2222222222222222-6666666666666666-2222222222222222
A|-4444444444444444-2222222222222222-6666666666666666-2222222222222222
E|-2222222222222222-0000000000000000-4444444444444444-0000000000000000
                                      | palm mute   |  | palm mute   |

Pre Chorus continued
E|-------------------------
B|-------------------------
G|-------------------------
D|-4444444444444444-2-2-2-2
A|-4444444444444444-2-2-2-2
E|-2222222222222222-0-0-0-0
[ Tab from: http://www.guitartabs.cc/tabs/f/fall_out_boy/reinventing_the_wheel_to_run_myself_over_tab.html ]
Chorus  x4
E|---------------
B|---------------
G|---------------
D|-9--11-2--66-44
A|-9--11-2--66-44
E|-7--9--0--44-22

Post Chorus  x3
E|---------------
B|---------------
G|---------------
D|-9999-11111111-22222222
A|-9999-11111111-22222222
E|-7777-9-9-9-9--00000000

Then

E|-------------------------
B|-------------------------
G|-------------------------
D|-9999-11111111-222222-7/9
A|-9999-11111111-222222-7/9
E|-7777-9-9-9-9--000000-5/7

Pre Chorus (slightly different than the first one)
E|--------------------------------------------------------------------
B|--------------------------------------------------------------------
G|--------------------------------------------------------------------
D|-4444444444444444-2222222222222222-6666666666666666-2222222222222222
A|-4444444444444444-2222222222222222-6666666666666666-2222222222222222
E|-2222222222222222-0000000000000000-4444444444444444-0000000000000000
                                      | palm mute   |  | palm mute   |

Pre Chorus continued
E|----------------------------------
B|----------------------------------
G|----------------------------------
D|-4444444444444444-2222222222222222
A|-4444444444444444-2222222222222222
E|-2222222222222222-0000000000000000

Chorus  x4
E|---------------
B|---------------
G|---------------
D|-9--11-2--66-44
A|-9--11-2--66-44
E|-7--9--0--44-22

Bridge
E|--XXXX---XXXX--XXXX---------------------------
B|--XXXX---XXXX--XXXX---------------------------
G|--XXXX---XXXX--XXXX---------------------------
D|-9XXXX-11XXXX-2XXXX-99-77-9x-9x-11~-2222-66-44
A|-9XXXX-11XXXX-2XXXX-99-77-9x-9x-11~-2222-66-44
E|-7XXXX-9XXXXX-0XXXX-77-55-7x-7x-9~~-0000-44-22

Ending
E|-------------------------
B|-------------------------
G|-------------------------
D|-9999-11111111-2222-66-44    do that x3
A|-9999-11111111-2222-66-44
E|-7777-9-9-9-9--0000-44-22

Then
E|----------------------
B|----------------------
G|----------------------
D|-9999-11111111-2-2-2-2
A|-9999-11111111-2-2-2-2
E|-7777-9-9-9-9--0-0-0-0
Comments