Fall Out Boy - Pretty In Punk Chords & Tabs

 

Pretty In Punk Chords & Tabs

Fall Out Boy Chords & Tabs

Version: 1 Type: Bass Tab 0 ratings
1 star 2 stars 3 stars 4 stars 5 stars
comments

Pretty In Punk Bass Tab

Intro 2x
G ------------------------------------------------------------------------|
D ------------------------------------------------------------------------|
A ------------------------------------------------------------------------|
E -5-5-5-5--5-5-5-5--2-2-2-2--2-2-2-2--5-5-5-5--5-5-5-5--2-2-2-2--2-2-2-2-|

Verse 3x
G ------------------------------------------------------------------------|
D ------------------------------------------------------------------------|
A -------------------------------------4-4-4-4--4-4-4-4--5-5-5-5--5-5-5-5-|
E -5-5-5-5--5-5-5-5--2-2-2-2--2-2-2-2-------------------------------------|

Verse Part 2
G ------------------------------------------------------------------|
D -------------------------------------------------------------4--7-|
A -------------------------------------4-4-4-4--4-4-4-4--5--7-------|
E -5-5-5-5--5-5-5-5--2-2-2-2--2-2-2-2-------------------------------|
[ Tab from: http://www.guitartabs.cc/tabs/f/fall_out_boy/pretty_in_punk_btab.html ]
Pre Chorus
G --------------------------------------------------------------|
D --------------------------------------------------------------|
A 2-2-2-2--4-5-5-5-5--4------------------------2-2-2-2-2-2--4-5-|
E -----------------------2-2-2-2-2-2--0-2-4-5-------------------|

Chorus 4x
G ------------------------------------|
D ------------------------------------|
A -------------------4-4-4-4--5-5-5-5-|
E -5-5-5-5--2-2-2-2-------------------|

Verse 2x

Verse Part 3
G -------------------------------------------------------|
D -------------------------------------------------4-7---|
A -------------4-44---5-55--------------4-44--5-7--------|
E -5-55--2-22---------------5-55--2-22-------------------|

Pre Chorus
Chorus 6x

Bridge
G -----------------------------------|
D -----------------------------------|
A ---------------22-22--22-22--55-55-|
E -55-55--22-22----------------------|

Chorus 8x

End Chorus 4x
G ------------------------|
D ------------------------|
A -------------6666--7777-|
E -7777--4444-------------|
Comments